  0
SECTION
  2
HEADER
  9
$ACADVER
  1
AC1009
  9
$DWGCODEPAGE
  3
ansi_1252
  9
$INSBASE
 10
0.0
 20
0.0
 30
0.0
  9
$EXTMIN
 10
18.66610738254598
 20
19.19043624161042
 30
0.0
  9
$EXTMAX
 10
2256.061428686621
 20
730.312803223497
 30
0.0
  9
$LIMMIN
 10
0.0
 20
0.0
  9
$LIMMAX
 10
12.0
 20
9.0
  9
$ORTHOMODE
 70
     0
  9
$REGENMODE
 70
     1
  9
$FILLMODE
 70
     1
  9
$QTEXTMODE
 70
     0
  9
$MIRRTEXT
 70
     1
  9
$DRAGMODE
 70
     2
  9
$LTSCALE
 40
1.0
  9
$OSMODE
 70
    37
  9
$ATTMODE
 70
     1
  9
$TEXTSIZE
 40
0.2
  9
$TRACEWID
 40
0.05
  9
$TEXTSTYLE
  7
STANDARD
  9
$CLAYER
  8
0
  9
$CELTYPE
  6
BYLAYER
  9
$CECOLOR
 62
   256
  9
$DIMSCALE
 40
1.0
  9
$DIMASZ
 40
0.18
  9
$DIMEXO
 40
0.0625
  9
$DIMDLI
 40
0.38
  9
$DIMRND
 40
0.0
  9
$DIMDLE
 40
0.0
  9
$DIMEXE
 40
0.18
  9
$DIMTP
 40
0.0
  9
$DIMTM
 40
0.0
  9
$DIMTXT
 40
0.18
  9
$DIMCEN
 40
0.09
  9
$DIMTSZ
 40
0.0
  9
$DIMTOL
 70
     0
  9
$DIMLIM
 70
     0
  9
$DIMTIH
 70
     1
  9
$DIMTOH
 70
     1
  9
$DIMSE1
 70
     0
  9
$DIMSE2
 70
     0
  9
$DIMTAD
 70
     0
  9
$DIMZIN
 70
     0
  9
$DIMBLK
  1

  9
$DIMASO
 70
     1
  9
$DIMSHO
 70
     1
  9
$DIMPOST
  1

  9
$DIMAPOST
  1

  9
$DIMALT
 70
     0
  9
$DIMALTD
 70
     2
  9
$DIMALTF
 40
25.4
  9
$DIMLFAC
 40
1.0
  9
$DIMTOFL
 70
     0
  9
$DIMTVP
 40
0.0
  9
$DIMTIX
 70
     0
  9
$DIMSOXD
 70
     0
  9
$DIMSAH
 70
     0
  9
$DIMBLK1
  1

  9
$DIMBLK2
  1

  9
$DIMSTYLE
  2
STANDARD
  9
$DIMCLRD
 70
     0
  9
$DIMCLRE
 70
     0
  9
$DIMCLRT
 70
     0
  9
$DIMTFAC
 40
1.0
  9
$DIMGAP
 40
0.09
  9
$LUNITS
 70
     2
  9
$LUPREC
 70
     4
  9
$SKETCHINC
 40
0.1
  9
$FILLETRAD
 40
0.5
  9
$AUNITS
 70
     0
  9
$AUPREC
 70
     0
  9
$MENU
  1
.
  9
$ELEVATION
 40
0.0
  9
$PELEVATION
 40
0.0
  9
$THICKNESS
 40
0.0
  9
$LIMCHECK
 70
     0
  9
$CHAMFERA
 40
0.0
  9
$CHAMFERB
 40
0.0
  9
$SKPOLY
 70
     0
  9
$TDCREATE
 40
2454910.5
  9
$TDUPDATE
 40
2458560.842656701
  9
$TDINDWG
 40
0.0000000116
  9
$TDUSRTIMER
 40
0.0000000116
  9
$USRTIMER
 70
     1
  9
$ANGBASE
 50
0.0
  9
$ANGDIR
 70
     0
  9
$PDMODE
 70
     0
  9
$PDSIZE
 40
0.0
  9
$PLINEWID
 40
0.0
  9
$COORDS
 70
     1
  9
$SPLFRAME
 70
     0
  9
$SPLINETYPE
 70
     6
  9
$SPLINESEGS
 70
     8
  9
$ATTDIA
 70
     0
  9
$ATTREQ
 70
     1
  9
$HANDLING
 70
     1
  9
$HANDSEED
  5
20D
  9
$SURFTAB1
 70
     6
  9
$SURFTAB2
 70
     6
  9
$SURFTYPE
 70
     6
  9
$SURFU
 70
     6
  9
$SURFV
 70
     6
  9
$UCSNAME
  2

  9
$UCSORG
 10
0.0
 20
0.0
 30
0.0
  9
$UCSXDIR
 10
1.0
 20
0.0
 30
0.0
  9
$UCSYDIR
 10
0.0
 20
1.0
 30
0.0
  9
$PUCSNAME
  2

  9
$PUCSORG
 10
0.0
 20
0.0
 30
0.0
  9
$PUCSXDIR
 10
1.0
 20
0.0
 30
0.0
  9
$PUCSYDIR
 10
0.0
 20
1.0
 30
0.0
  9
$USERI1
 70
     0
  9
$USERI2
 70
     0
  9
$USERI3
 70
     0
  9
$USERI4
 70
     0
  9
$USERI5
 70
     0
  9
$USERR1
 40
0.0
  9
$USERR2
 40
0.0
  9
$USERR3
 40
0.0
  9
$USERR4
 40
0.0
  9
$USERR5
 40
0.0
  9
$WORLDVIEW
 70
     1
  9
$SHADEDGE
 70
     3
  9
$SHADEDIF
 70
    70
  9
$TILEMODE
 70
     1
  9
$MAXACTVP
 70
    64
  9
$PLIMCHECK
 70
     0
  9
$PEXTMIN
 10
1.000000000000000E+20
 20
1.000000000000000E+20
 30
1.000000000000000E+20
  9
$PEXTMAX
 10
-1.000000000000000E+20
 20
-1.000000000000000E+20
 30
-1.000000000000000E+20
  9
$PLIMMIN
 10
0.0
 20
0.0
  9
$PLIMMAX
 10
12.0
 20
9.0
  9
$UNITMODE
 70
     0
  9
$VISRETAIN
 70
     1
  9
$PLINEGEN
 70
     0
  9
$PSLTSCALE
 70
     1
  0
ENDSEC
  0
SECTION
  2
TABLES
  0
TABLE
  2
VPORT
 70
     1
  0
VPORT
  2
*ACTIVE
 70
     0
 10
0.0
 20
0.0
 11
1.0
 21
1.0
 12
10.42990654205607
 22
4.5
 13
0.0
 23
0.0
 14
0.5
 24
0.5
 15
0.5
 25
0.5
 16
0.0
 26
0.0
 36
1.0
 17
0.0
 27
0.0
 37
0.0
 40
9.0
 41
1.972972972850329
 42
50.0
 43
0.0
 44
0.0
 50
0.0
 51
0.0
 71
     0
 72
   100
 73
     1
 74
     3
 75
     0
 76
     0
 77
     0
 78
     0
  0
ENDTAB
  0
TABLE
  2
LTYPE
 70
     2
  0
LTYPE
  2
CONTINUOUS
 70
     0
  3
Solid line
 72
    65
 73
     0
 40
0.0
  0
LTYPE
  2
CONTINUOUS2
 70
     0
  3
Solid Line
 72
    65
 73
     0
 40
0.0
  0
ENDTAB
  0
TABLE
  2
LAYER
 70
     4
  0
LAYER
  2
0
 70
     0
 62
     7
  6
CONTINUOUS
  0
LAYER
  2
LAYER_1
 70
     0
 62
    18
  6
CONTINUOUS
  0
LAYER
  2
WINDOW
 70
     0
 62
     1
  6
CONTINUOUS
  0
LAYER
  2
PERSPEX
 70
     0
 62
     5
  6
CONTINUOUS
  0
ENDTAB
  0
TABLE
  2
STYLE
 70
     1
  0
STYLE
  2
STANDARD
 70
     0
 40
0.0
 41
1.0
 50
0.0
 71
     0
 42
0.2
  3
txt
  4

  0
ENDTAB
  0
TABLE
  2
VIEW
 70
     0
  0
ENDTAB
  0
TABLE
  2
UCS
 70
     0
  0
ENDTAB
  0
TABLE
  2
APPID
 70
     1
  0
APPID
  2
ACAD
 70
     0
  0
ENDTAB
  0
TABLE
  2
DIMSTYLE
 70
     1
  0
DIMSTYLE
  2
STANDARD
 70
     0
  3

  4

  5

  6

  7

 40
1.0
 41
0.18
 42
0.0625
 43
0.38
 44
0.18
 45
0.0
 46
0.0
 47
0.0
 48
0.0
140
0.18
141
0.09
142
0.0
143
25.4
144
1.0
145
0.0
146
1.0
147
0.09
 71
     0
 72
     0
 73
     1
 74
     1
 75
     0
 76
     0
 77
     0
 78
     0
170
     0
171
     2
172
     0
173
     0
174
     0
175
     0
176
     0
177
     0
178
     0
  0
ENDTAB
  0
ENDSEC
  0
SECTION
  2
BLOCKS
  0
BLOCK
  8
0
  2
$MODEL_SPACE
 70
     0
 10
0.0
 20
0.0
 30
0.0
  3
$MODEL_SPACE
  1

  0
ENDBLK
  5
21
  8
0
  0
BLOCK
 67
     1
  8
0
  2
$PAPER_SPACE
 70
     0
 10
0.0
 20
0.0
 30
0.0
  3
$PAPER_SPACE
  1

  0
ENDBLK
  5
1D
 67
     1
  8
0
  0
ENDSEC
  0
SECTION
  2
ENTITIES
  0
POLYLINE
  5
70
  8
LAYER_1
 66
     1
 10
0.0
 20
0.0
 30
0.0
 70
     1
  0
VERTEX
  5
87
  8
LAYER_1
 10
313.8626382845114
 20
172.0475744761561
 30
0.0
 42
0.423544186021552
  0
VERTEX
  5
88
  8
LAYER_1
 10
403.8172760657994
 20
79.19043624161043
 30
0.0
  0
VERTEX
  5
89
  8
LAYER_1
 10
768.3661148821744
 20
79.19043624161044
 30
0.0
  0
VERTEX
  5
8A
  8
LAYER_1
 10
867.6162976342833
 20
80.18293806913152
 30
0.0
  0
VERTEX
  5
8B
  8
LAYER_1
 10
893.9717313086529
 20
80.84182391099074
 30
0.0
 42
0.4052899812529281
  0
VERTEX
  5
8C
  8
LAYER_1
 10
903.666107382546
 20
90.8371697791024
 30
0.0
  0
VERTEX
  5
8D
  8
LAYER_1
 10
903.666107382546
 20
261.753478439919
 30
0.0
  0
VERTEX
  5
8E
  8
LAYER_1
 10
903.6661523784409
 20
261.7834770378003
 30
0.0
 42
0.4130424679304656
  0
VERTEX
  5
8F
  8
LAYER_1
 10
893.7361956594018
 20
271.8132306446807
 30
0.0
  0
VERTEX
  5
90
  8
LAYER_1
 10
328.6311078112847
 20
275.7689662596175
 30
0.0
  0
VERTEX
  5
91
  8
LAYER_1
 10
327.1123637947688
 20
275.7689662596175
 30
0.0
  0
VERTEX
  5
92
  8
LAYER_1
 10
327.0764206340472
 20
275.7690308553663
 30
0.0
 42
0.4053842686788043
  0
VERTEX
  5
93
  8
LAYER_1
 10
317.0462003674964
 20
266.1073632916202
 30
0.0
  0
SEQEND
  5
1FF
  8
LAYER_1
  0
POLYLINE
  5
71
  8
LAYER_1
 66
     1
 10
0.0
 20
0.0
 30
0.0
 70
     1
  0
VERTEX
  5
94
  8
LAYER_1
 10
268.6661073825459
 20
19.19043624161042
 30
0.0
  0
VERTEX
  5
95
  8
LAYER_1
 10
18.66610738254598
 20
19.19043624161042
 30
0.0
  0
VERTEX
  5
96
  8
LAYER_1
 10
18.66610738254598
 20
351.1904362416104
 30
0.0
  0
VERTEX
  5
97
  8
LAYER_1
 10
279.851306745267
 20
352.1702199317148
 30
0.0
  0
VERTEX
  5
98
  8
LAYER_1
 10
839.2206872094845
 20
342.1965541828218
 30
0.0
  0
VERTEX
  5
99
  8
LAYER_1
 10
1268.666107382545
 20
339.1904362416104
 30
0.0
  0
VERTEX
  5
9A
  8
LAYER_1
 10
1368.666107382544
 20
344.1904362416104
 30
0.0
  0
VERTEX
  5
9B
  8
LAYER_1
 10
1468.666107382544
 20
345.1904362416104
 30
0.0
  0
VERTEX
  5
9C
  8
LAYER_1
 10
1568.666107382544
 20
348.1904362416104
 30
0.0
  0
VERTEX
  5
9D
  8
LAYER_1
 10
1748.666107382544
 20
352.1904362416104
 30
0.0
  0
VERTEX
  5
9E
  8
LAYER_1
 10
2068.666107382544
 20
208.1904362416104
 30
0.0
  0
VERTEX
  5
9F
  8
LAYER_1
 10
2237.221548593534
 20
132.7976558365951
 30
0.0
 42
-0.7557872378278216
  0
VERTEX
  5
A0
  8
LAYER_1
 10
2231.692087024735
 20
94.71527539591615
 30
0.0
  0
VERTEX
  5
A1
  8
LAYER_1
 10
2224.011403853352
 20
93.66494390139135
 30
0.0
  0
VERTEX
  5
A2
  8
LAYER_1
 10
2216.330518715327
 20
92.62295525437672
 30
0.0
  0
VERTEX
  5
A3
  8
LAYER_1
 10
2208.649125905064
 20
91.5906945608921
 30
0.0
  0
VERTEX
  5
A4
  8
LAYER_1
 10
2200.96691971697
 20
90.56954692695733
 30
0.0
  0
VERTEX
  5
A5
  8
LAYER_1
 10
2193.283594445446
 20
89.56089745859225
 30
0.0
  0
VERTEX
  5
A6
  8
LAYER_1
 10
2185.598844384901
 20
88.56613126181672
 30
0.0
  0
VERTEX
  5
A7
  8
LAYER_1
 10
2177.912363829736
 20
87.58663344265058
 30
0.0
  0
VERTEX
  5
A8
  8
LAYER_1
 10
2170.223847074356
 20
86.62378910711368
 30
0.0
  0
VERTEX
  5
A9
  8
LAYER_1
 10
2163.890411373493
 20
85.84255587069865
 30
0.0
  0
VERTEX
  5
AA
  8
LAYER_1
 10
2157.555132459252
 20
85.0702106102558
 30
0.0
  0
VERTEX
  5
AB
  8
LAYER_1
 10
2151.218007505074
 20
84.30675300757169
 30
0.0
  0
VERTEX
  5
AC
  8
LAYER_1
 10
2144.8790336844
 20
83.55218274443287
 30
0.0
  0
VERTEX
  5
AD
  8
LAYER_1
 10
2138.538208170674
 20
82.80649950262593
 30
0.0
  0
VERTEX
  5
AE
  8
LAYER_1
 10
2132.195528137338
 20
82.0697029639374
 30
0.0
  0
VERTEX
  5
AF
  8
LAYER_1
 10
2125.850990757831
 20
81.34179281015389
 30
0.0
  0
VERTEX
  5
B0
  8
LAYER_1
 10
2119.504593205596
 20
80.62276872306192
 30
0.0
  0
VERTEX
  5
B1
  8
LAYER_1
 10
2113.156332654076
 20
79.9126303844481
 30
0.0
  0
VERTEX
  5
B2
  8
LAYER_1
 10
2106.806206276712
 20
79.21137747609896
 30
0.0
  0
VERTEX
  5
B3
  8
LAYER_1
 10
2100.454211246946
 20
78.51900967980109
 30
0.0
  0
VERTEX
  5
B4
  8
LAYER_1
 10
2094.100344738219
 20
77.83552667734104
 30
0.0
  0
VERTEX
  5
B5
  8
LAYER_1
 10
2087.744603923974
 20
77.16092815050538
 30
0.0
  0
VERTEX
  5
B6
  8
LAYER_1
 10
2081.386985977652
 20
76.4952137810807
 30
0.0
  0
VERTEX
  5
B7
  8
LAYER_1
 10
2075.027488072695
 20
75.83838325085351
 30
0.0
  0
VERTEX
  5
B8
  8
LAYER_1
 10
2068.666107382544
 20
75.19043624161043
 30
0.0
  0
VERTEX
  5
B9
  8
LAYER_1
 10
1968.666107382544
 20
66.19043624161043
 30
0.0
  0
VERTEX
  5
BA
  8
LAYER_1
 10
1868.666107382544
 20
60.19043624161043
 30
0.0
  0
VERTEX
  5
BB
  8
LAYER_1
 10
1768.666107382544
 20
55.19043624161043
 30
0.0
  0
VERTEX
  5
BC
  8
LAYER_1
 10
1668.666107382544
 20
50.19043624161043
 30
0.0
  0
VERTEX
  5
BD
  8
LAYER_1
 10
1568.666107382544
 20
44.19043624161043
 30
0.0
  0
VERTEX
  5
BE
  8
LAYER_1
 10
1468.666107382544
 20
41.19043624161043
 30
0.0
  0
VERTEX
  5
BF
  8
LAYER_1
 10
1368.666107382544
 20
36.19043624161043
 30
0.0
  0
VERTEX
  5
C0
  8
LAYER_1
 10
1268.666107382545
 20
32.19043624161043
 30
0.0
  0
VERTEX
  5
C1
  8
LAYER_1
 10
1168.666107382545
 20
30.19043624161042
 30
0.0
  0
VERTEX
  5
C2
  8
LAYER_1
 10
1068.666107382546
 20
25.19043624161042
 30
0.0
  0
VERTEX
  5
C3
  8
LAYER_1
 10
868.666107382546
 20
20.19043624161042
 30
0.0
  0
VERTEX
  5
C4
  8
LAYER_1
 10
768.666107382546
 20
19.19043624161042
 30
0.0
  0
SEQEND
  5
200
  8
LAYER_1
  0
POLYLINE
  5
72
  8
LAYER_1
 66
     1
 10
0.0
 20
0.0
 30
0.0
 70
     1
  0
VERTEX
  5
C5
  8
LAYER_1
 10
1020.666107382546
 20
260.870553125636
 30
0.0
  0
VERTEX
  5
C6
  8
LAYER_1
 10
1021.218414483246
 20
88.50466086587919
 30
0.0
  0
VERTEX
  5
C7
  8
LAYER_1
 10
1021.217487134135
 20
88.33271566437443
 30
0.0
 42
0.4200487259371322
  0
VERTEX
  5
C8
  8
LAYER_1
 10
1029.998621219592
 20
79.48056266049257
 30
0.0
  0
VERTEX
  5
C9
  8
LAYER_1
 10
1067.3147289561
 20
80.52567394566103
 30
0.0
  0
VERTEX
  5
CA
  8
LAYER_1
 10
1167.548428184639
 20
80.97157573947459
 30
0.0
  0
VERTEX
  5
CB
  8
LAYER_1
 10
1267.206591240481
 20
82.17203960871512
 30
0.0
  0
VERTEX
  5
CC
  8
LAYER_1
 10
1366.511448660968
 20
86.14423390553458
 30
0.0
  0
VERTEX
  5
CD
  8
LAYER_1
 10
1466.233763676403
 20
89.27014832393564
 30
0.0
  0
VERTEX
  5
CE
  8
LAYER_1
 10
1566.325671696789
 20
94.13992924593785
 30
0.0
  0
VERTEX
  5
CF
  8
LAYER_1
 10
1665.920291460472
 20
100.1156064317588
 30
0.0
  0
VERTEX
  5
D0
  8
LAYER_1
 10
1766.16922653535
 20
105.1280531855027
 30
0.0
  0
VERTEX
  5
D1
  8
LAYER_1
 10
1865.920291460463
 20
110.1156064317583
 30
0.0
  0
VERTEX
  5
D2
  8
LAYER_1
 10
1927.976970593767
 20
113.8390071797565
 30
0.0
  0
VERTEX
  5
D3
  8
LAYER_1
 10
1928.01298274544
 20
113.8411027285286
 30
0.0
 42
0.7857438233963555
  0
VERTEX
  5
D4
  8
LAYER_1
 10
1932.421432096617
 20
137.7281472611975
 30
0.0
  0
VERTEX
  5
D5
  8
LAYER_1
 10
1634.824476583022
 20
271.0988698229293
 30
0.0
 42
0.1102477796051098
  0
VERTEX
  5
D6
  8
LAYER_1
 10
1596.373346626451
 20
278.7888708519298
 30
0.0
  0
VERTEX
  5
D7
  8
LAYER_1
 10
1570.493248600855
 20
278.2137575624722
 30
0.0
  0
VERTEX
  5
D8
  8
LAYER_1
 10
1470.065757541684
 20
275.2009328306971
 30
0.0
  0
VERTEX
  5
D9
  8
LAYER_1
 10
1370.653386036374
 20
274.2068091156443
 30
0.0
  0
VERTEX
  5
DA
  8
LAYER_1
 10
1269.850733402904
 20
271.414816804726
 30
0.0
  0
VERTEX
  5
DB
  8
LAYER_1
 10
1030.876718239449
 20
270.8536839171387
 30
0.0
  0
VERTEX
  5
DC
  8
LAYER_1
 10
1030.759672385161
 20
270.8540940796469
 30
0.0
 42
0.4164857288849968
  0
SEQEND
  5
201
  8
LAYER_1
  0
POLYLINE
  5
73
  8
LAYER_1
 66
     1
 10
0.0
 20
0.0
 30
0.0
 70
     1
  0
VERTEX
  5
DD
  8
LAYER_1
 10
320.8688523065635
 20
577.4556649889514
 30
0.0
 42
-0.423544186021552
  0
VERTEX
  5
DE
  8
LAYER_1
 10
410.8234900878515
 20
670.312803223497
 30
0.0
  0
VERTEX
  5
DF
  8
LAYER_1
 10
775.3723289042265
 20
670.312803223497
 30
0.0
  0
VERTEX
  5
E0
  8
LAYER_1
 10
874.6225116563354
 20
669.3203013959759
 30
0.0
  0
VERTEX
  5
E1
  8
LAYER_1
 10
900.977945330705
 20
668.6614155541167
 30
0.0
 42
-0.4052899812529281
  0
VERTEX
  5
E2
  8
LAYER_1
 10
910.672321404598
 20
658.666069686005
 30
0.0
  0
VERTEX
  5
E3
  8
LAYER_1
 10
910.672321404598
 20
487.7497610251884
 30
0.0
  0
VERTEX
  5
E4
  8
LAYER_1
 10
910.6723664004929
 20
487.7197624273071
 30
0.0
 42
-0.4130424679304656
  0
VERTEX
  5
E5
  8
LAYER_1
 10
900.7424096814539
 20
477.6900088204267
 30
0.0
  0
VERTEX
  5
E6
  8
LAYER_1
 10
335.6373218333367
 20
473.7342732054899
 30
0.0
  0
VERTEX
  5
E7
  8
LAYER_1
 10
334.1185778168208
 20
473.7342732054899
 30
0.0
  0
VERTEX
  5
E8
  8
LAYER_1
 10
334.0826346560992
 20
473.7342086097411
 30
0.0
 42
-0.4053842686788043
  0
VERTEX
  5
E9
  8
LAYER_1
 10
324.0524143895485
 20
483.3958761734872
 30
0.0
  0
SEQEND
  5
202
  8
LAYER_1
  0
POLYLINE
  5
74
  8
LAYER_1
 66
     1
 10
0.0
 20
0.0
 30
0.0
 70
     1
  0
VERTEX
  5
EA
  8
LAYER_1
 10
275.672321404598
 20
730.312803223497
 30
0.0
  0
VERTEX
  5
EB
  8
LAYER_1
 10
25.67232140459804
 20
730.312803223497
 30
0.0
  0
VERTEX
  5
EC
  8
LAYER_1
 10
25.67232140459804
 20
398.312803223497
 30
0.0
  0
VERTEX
  5
ED
  8
LAYER_1
 10
286.8575207673191
 20
397.3330195333926
 30
0.0
  0
VERTEX
  5
EE
  8
LAYER_1
 10
846.2269012315365
 20
407.3066852822856
 30
0.0
  0
VERTEX
  5
EF
  8
LAYER_1
 10
1275.672321404597
 20
410.312803223497
 30
0.0
  0
VERTEX
  5
F0
  8
LAYER_1
 10
1375.672321404596
 20
405.312803223497
 30
0.0
  0
VERTEX
  5
F1
  8
LAYER_1
 10
1475.672321404596
 20
404.312803223497
 30
0.0
  0
VERTEX
  5
F2
  8
LAYER_1
 10
1575.672321404596
 20
401.312803223497
 30
0.0
  0
VERTEX
  5
F3
  8
LAYER_1
 10
1755.672321404596
 20
397.312803223497
 30
0.0
  0
VERTEX
  5
F4
  8
LAYER_1
 10
2075.672321404596
 20
541.312803223497
 30
0.0
  0
VERTEX
  5
F5
  8
LAYER_1
 10
2244.227762615586
 20
616.7055836285124
 30
0.0
 42
0.7557872378278216
  0
VERTEX
  5
F6
  8
LAYER_1
 10
2238.698301046787
 20
654.7879640691913
 30
0.0
  0
VERTEX
  5
F7
  8
LAYER_1
 10
2231.017617875404
 20
655.8382955637161
 30
0.0
  0
VERTEX
  5
F8
  8
LAYER_1
 10
2223.336732737379
 20
656.8802842107307
 30
0.0
  0
VERTEX
  5
F9
  8
LAYER_1
 10
2215.655339927117
 20
657.9125449042153
 30
0.0
  0
VERTEX
  5
FA
  8
LAYER_1
 10
2207.973133739022
 20
658.9336925381501
 30
0.0
  0
VERTEX
  5
FB
  8
LAYER_1
 10
2200.289808467499
 20
659.9423420065152
 30
0.0
  0
VERTEX
  5
FC
  8
LAYER_1
 10
2192.605058406953
 20
660.9371082032907
 30
0.0
  0
VERTEX
  5
FD
  8
LAYER_1
 10
2184.918577851788
 20
661.9166060224569
 30
0.0
  0
VERTEX
  5
FE
  8
LAYER_1
 10
2177.230061096408
 20
662.8794503579937
 30
0.0
  0
VERTEX
  5
FF
  8
LAYER_1
 10
2170.896625395545
 20
663.6606835944087
 30
0.0
  0
VERTEX
  5
100
  8
LAYER_1
 10
2164.561346481304
 20
664.4330288548515
 30
0.0
  0
VERTEX
  5
101
  8
LAYER_1
 10
2158.224221527126
 20
665.1964864575357
 30
0.0
  0
VERTEX
  5
102
  8
LAYER_1
 10
2151.885247706453
 20
665.9510567206746
 30
0.0
  0
VERTEX
  5
103
  8
LAYER_1
 10
2145.544422192727
 20
666.6967399624816
 30
0.0
  0
VERTEX
  5
104
  8
LAYER_1
 10
2139.20174215939
 20
667.43353650117
 30
0.0
  0
VERTEX
  5
105
  8
LAYER_1
 10
2132.857204779883
 20
668.1614466549536
 30
0.0
  0
VERTEX
  5
106
  8
LAYER_1
 10
2126.510807227649
 20
668.8804707420455
 30
0.0
  0
VERTEX
  5
107
  8
LAYER_1
 10
2120.162546676129
 20
669.5906090806594
 30
0.0
  0
VERTEX
  5
108
  8
LAYER_1
 10
2113.812420298765
 20
670.2918619890086
 30
0.0
  0
VERTEX
  5
109
  8
LAYER_1
 10
2107.460425268998
 20
670.9842297853064
 30
0.0
  0
VERTEX
  5
10A
  8
LAYER_1
 10
2101.106558760271
 20
671.6677127877665
 30
0.0
  0
VERTEX
  5
10B
  8
LAYER_1
 10
2094.750817946026
 20
672.3423113146021
 30
0.0
  0
VERTEX
  5
10C
  8
LAYER_1
 10
2088.393199999703
 20
673.0080256840267
 30
0.0
  0
VERTEX
  5
10D
  8
LAYER_1
 10
2082.033702094746
 20
673.664856214254
 30
0.0
  0
VERTEX
  5
10E
  8
LAYER_1
 10
2075.672321404596
 20
674.312803223497
 30
0.0
  0
VERTEX
  5
10F
  8
LAYER_1
 10
1975.672321404596
 20
683.312803223497
 30
0.0
  0
VERTEX
  5
110
  8
LAYER_1
 10
1875.672321404596
 20
689.312803223497
 30
0.0
  0
VERTEX
  5
111
  8
LAYER_1
 10
1775.672321404596
 20
694.312803223497
 30
0.0
  0
VERTEX
  5
112
  8
LAYER_1
 10
1675.672321404596
 20
699.312803223497
 30
0.0
  0
VERTEX
  5
113
  8
LAYER_1
 10
1575.672321404596
 20
705.312803223497
 30
0.0
  0
VERTEX
  5
114
  8
LAYER_1
 10
1475.672321404596
 20
708.312803223497
 30
0.0
  0
VERTEX
  5
115
  8
LAYER_1
 10
1375.672321404596
 20
713.312803223497
 30
0.0
  0
VERTEX
  5
116
  8
LAYER_1
 10
1275.672321404597
 20
717.312803223497
 30
0.0
  0
VERTEX
  5
117
  8
LAYER_1
 10
1175.672321404597
 20
719.312803223497
 30
0.0
  0
VERTEX
  5
118
  8
LAYER_1
 10
1075.672321404598
 20
724.312803223497
 30
0.0
  0
VERTEX
  5
119
  8
LAYER_1
 10
875.672321404598
 20
729.312803223497
 30
0.0
  0
VERTEX
  5
11A
  8
LAYER_1
 10
775.672321404598
 20
730.312803223497
 30
0.0
  0
SEQEND
  5
203
  8
LAYER_1
  0
POLYLINE
  5
75
  8
LAYER_1
 66
     1
 10
0.0
 20
0.0
 30
0.0
 70
     1
  0
VERTEX
  5
11B
  8
LAYER_1
 10
1027.672321404598
 20
488.6326863394714
 30
0.0
  0
VERTEX
  5
11C
  8
LAYER_1
 10
1028.224628505298
 20
660.9985785992283
 30
0.0
  0
VERTEX
  5
11D
  8
LAYER_1
 10
1028.223701156187
 20
661.170523800733
 30
0.0
 42
-0.4200487259371322
  0
VERTEX
  5
11E
  8
LAYER_1
 10
1037.004835241644
 20
670.0226768046148
 30
0.0
  0
VERTEX
  5
11F
  8
LAYER_1
 10
1074.320942978152
 20
668.9775655194464
 30
0.0
  0
VERTEX
  5
120
  8
LAYER_1
 10
1174.554642206691
 20
668.5316637256328
 30
0.0
  0
VERTEX
  5
121
  8
LAYER_1
 10
1274.212805262533
 20
667.3311998563922
 30
0.0
  0
VERTEX
  5
122
  8
LAYER_1
 10
1373.51766268302
 20
663.3590055595728
 30
0.0
  0
VERTEX
  5
123
  8
LAYER_1
 10
1473.239977698455
 20
660.2330911411718
 30
0.0
  0
VERTEX
  5
124
  8
LAYER_1
 10
1573.331885718841
 20
655.3633102191695
 30
0.0
  0
VERTEX
  5
125
  8
LAYER_1
 10
1672.926505482524
 20
649.3876330333486
 30
0.0
  0
VERTEX
  5
126
  8
LAYER_1
 10
1773.175440557402
 20
644.3751862796048
 30
0.0
  0
VERTEX
  5
127
  8
LAYER_1
 10
1872.926505482515
 20
639.3876330333491
 30
0.0
  0
VERTEX
  5
128
  8
LAYER_1
 10
1934.983184615819
 20
635.6642322853509
 30
0.0
  0
VERTEX
  5
129
  8
LAYER_1
 10
1935.019196767492
 20
635.6621367365789
 30
0.0
 42
-0.7857438233963555
  0
VERTEX
  5
12A
  8
LAYER_1
 10
1939.427646118669
 20
611.7750922039099
 30
0.0
  0
VERTEX
  5
12B
  8
LAYER_1
 10
1641.830690605074
 20
478.4043696421782
 30
0.0
 42
-0.1102477796051098
  0
VERTEX
  5
12C
  8
LAYER_1
 10
1603.379560648503
 20
470.7143686131776
 30
0.0
  0
VERTEX
  5
12D
  8
LAYER_1
 10
1577.499462622907
 20
471.2894819026352
 30
0.0
  0
VERTEX
  5
12E
  8
LAYER_1
 10
1477.071971563736
 20
474.3023066344103
 30
0.0
  0
VERTEX
  5
12F
  8
LAYER_1
 10
1377.659600058426
 20
475.2964303494631
 30
0.0
  0
VERTEX
  5
130
  8
LAYER_1
 10
1276.856947424956
 20
478.0884226603814
 30
0.0
  0
VERTEX
  5
131
  8
LAYER_1
 10
1037.882932261501
 20
478.6495555479687
 30
0.0
  0
VERTEX
  5
132
  8
LAYER_1
 10
1037.765886407213
 20
478.6491453854605
 30
0.0
 42
-0.4164857288849968
  0
SEQEND
  5
204
  8
LAYER_1
  0
POLYLINE
  5
77
  8
WINDOW
 66
     1
 10
0.0
 20
0.0
 30
0.0
 70
     1
  0
VERTEX
  5
133
  8
WINDOW
 10
768.416113632237
 20
69.19043624161044
 30
0.0
  0
VERTEX
  5
134
  8
WINDOW
 10
403.8172760657995
 20
69.19043624161043
 30
0.0
 42
-0.4235764901098467
  0
VERTEX
  5
135
  8
WINDOW
 10
303.8680275875313
 20
172.3759862144424
 30
0.0
  0
VERTEX
  5
136
  8
WINDOW
 10
307.0519232616683
 20
266.445631132125
 30
0.0
 42
-0.4053842686787873
  0
VERTEX
  5
137
  8
WINDOW
 10
327.1123637947688
 20
285.7689662596175
 30
0.0
  0
VERTEX
  5
138
  8
WINDOW
 10
328.6661073825459
 20
285.7689662596175
 30
0.0
  0
VERTEX
  5
139
  8
WINDOW
 10
893.8061939444646
 20
281.8129856536841
 30
0.0
 42
-0.4130424679304883
  0
VERTEX
  5
13A
  8
WINDOW
 10
913.666107382546
 20
261.753478439919
 30
0.0
  0
VERTEX
  5
13B
  8
WINDOW
 10
913.666107382546
 20
90.8371697791024
 30
0.0
 42
-0.4058294781409962
  0
VERTEX
  5
13C
  8
WINDOW
 10
894.240221793502
 20
70.84541166124069
 30
0.0
  0
VERTEX
  5
13D
  8
WINDOW
 10
867.7912659256602
 20
70.18418776454467
 30
0.0
  0
SEQEND
  5
205
  8
WINDOW
  0
POLYLINE
  5
78
  8
WINDOW
 66
     1
 10
0.0
 20
0.0
 30
0.0
 70
     1
  0
VERTEX
  5
13E
  8
WINDOW
 10
1067.476974324892
 20
70.52629676322535
 30
0.0
  0
VERTEX
  5
13F
  8
WINDOW
 10
1030.208562830397
 20
69.4825213055002
 30
0.0
 42
-0.4224330880980711
  0
VERTEX
  5
140
  8
WINDOW
 10
1011.218465819627
 20
88.47261831627065
 30
0.0
  0
VERTEX
  5
141
  8
WINDOW
 10
1010.666107382546
 20
260.8545318097075
 30
0.0
 42
-0.4169567207186148
  0
VERTEX
  5
142
  8
WINDOW
 10
1030.853237387763
 20
280.8536563495809
 30
0.0
  0
VERTEX
  5
143
  8
WINDOW
 10
1269.700533915223
 20
281.4144916901984
 30
0.0
  0
VERTEX
  5
144
  8
WINDOW
 10
1370.464938845009
 20
284.2054246312313
 30
0.0
  0
VERTEX
  5
145
  8
WINDOW
 10
1469.865807518937
 20
285.1994333179703
 30
0.0
  0
VERTEX
  5
146
  8
WINDOW
 10
1570.23222842681
 20
288.2104259452062
 30
0.0
  0
VERTEX
  5
147
  8
WINDOW
 10
1596.151179253601
 20
288.786402630246
 30
0.0
 42
-0.1103052969972194
  0
VERTEX
  5
148
  8
WINDOW
 10
1638.895459078679
 20
280.2327365229438
 30
0.0
  0
VERTEX
  5
149
  8
WINDOW
 10
1936.511102333169
 20
146.8536388839137
 30
0.0
 42
-0.7857438233963647
  0
VERTEX
  5
14A
  8
WINDOW
 10
1928.575893501046
 20
103.8569587250988
 30
0.0
  0
VERTEX
  5
14B
  8
WINDOW
 10
1866.46945464488
 20
100.1305723937287
 30
0.0
  0
VERTEX
  5
14C
  8
WINDOW
 10
1766.668602704789
 20
95.14052979672422
 30
0.0
  0
VERTEX
  5
14D
  8
WINDOW
 10
1666.469454644883
 20
90.13057239372894
 30
0.0
  0
VERTEX
  5
14E
  8
WINDOW
 10
1566.868128563986
 20
84.15449282887515
 30
0.0
  0
VERTEX
  5
14F
  8
WINDOW
 10
1466.63342555759
 20
79.27776448912073
 30
0.0
  0
VERTEX
  5
150
  8
WINDOW
 10
1366.867949505365
 20
76.150497136753
 30
0.0
  0
VERTEX
  5
151
  8
WINDOW
 10
1267.466706879054
 20
72.17444743170057
 30
0.0
  0
VERTEX
  5
152
  8
WINDOW
 10
1167.630896971564
 20
70.97184366121816
 30
0.0
  0
SEQEND
  5
206
  8
WINDOW
  0
POLYLINE
  5
79
  8
WINDOW
 66
     1
 10
0.0
 20
0.0
 30
0.0
 70
     1
  0
VERTEX
  5
153
  8
WINDOW
 10
775.4223276542891
 20
680.312803223497
 30
0.0
  0
VERTEX
  5
154
  8
WINDOW
 10
410.8234900878516
 20
680.312803223497
 30
0.0
 42
0.4235764901098467
  0
VERTEX
  5
155
  8
WINDOW
 10
310.8742416095834
 20
577.127253250665
 30
0.0
  0
VERTEX
  5
156
  8
WINDOW
 10
314.0581372837203
 20
483.0576083329824
 30
0.0
 42
0.4053842686787873
  0
VERTEX
  5
157
  8
WINDOW
 10
334.1185778168208
 20
463.7342732054899
 30
0.0
  0
VERTEX
  5
158
  8
WINDOW
 10
335.672321404598
 20
463.7342732054899
 30
0.0
  0
VERTEX
  5
159
  8
WINDOW
 10
900.8124079665166
 20
467.6902538114234
 30
0.0
 42
0.4130424679304883
  0
VERTEX
  5
15A
  8
WINDOW
 10
920.672321404598
 20
487.7497610251884
 30
0.0
  0
VERTEX
  5
15B
  8
WINDOW
 10
920.672321404598
 20
658.666069686005
 30
0.0
 42
0.4058294781409962
  0
VERTEX
  5
15C
  8
WINDOW
 10
901.246435815554
 20
678.6578278038667
 30
0.0
  0
VERTEX
  5
15D
  8
WINDOW
 10
874.7974799477123
 20
679.3190517005628
 30
0.0
  0
SEQEND
  5
207
  8
WINDOW
  0
POLYLINE
  5
7A
  8
WINDOW
 66
     1
 10
0.0
 20
0.0
 30
0.0
 70
     1
  0
VERTEX
  5
15E
  8
WINDOW
 10
1074.483188346944
 20
678.9769427018821
 30
0.0
  0
VERTEX
  5
15F
  8
WINDOW
 10
1037.214776852449
 20
680.0207181596072
 30
0.0
 42
0.4224330880980711
  0
VERTEX
  5
160
  8
WINDOW
 10
1018.224679841679
 20
661.0306211488368
 30
0.0
  0
VERTEX
  5
161
  8
WINDOW
 10
1017.672321404598
 20
488.6487076553999
 30
0.0
 42
0.4169567207186148
  0
VERTEX
  5
162
  8
WINDOW
 10
1037.859451409815
 20
468.6495831155265
 30
0.0
  0
VERTEX
  5
163
  8
WINDOW
 10
1276.706747937275
 20
468.088747774909
 30
0.0
  0
VERTEX
  5
164
  8
WINDOW
 10
1377.471152867061
 20
465.2978148338761
 30
0.0
  0
VERTEX
  5
165
  8
WINDOW
 10
1476.872021540989
 20
464.3038061471372
 30
0.0
  0
VERTEX
  5
166
  8
WINDOW
 10
1577.238442448862
 20
461.2928135199012
 30
0.0
  0
VERTEX
  5
167
  8
WINDOW
 10
1603.157393275653
 20
460.7168368348615
 30
0.0
 42
0.1103052969972194
  0
VERTEX
  5
168
  8
WINDOW
 10
1645.901673100731
 20
469.2705029421637
 30
0.0
  0
VERTEX
  5
169
  8
WINDOW
 10
1943.517316355221
 20
602.6496005811937
 30
0.0
 42
0.7857438233963647
  0
VERTEX
  5
16A
  8
WINDOW
 10
1935.582107523098
 20
645.6462807400087
 30
0.0
  0
VERTEX
  5
16B
  8
WINDOW
 10
1873.475668666932
 20
649.3726670713787
 30
0.0
  0
VERTEX
  5
16C
  8
WINDOW
 10
1773.674816726841
 20
654.3627096683832
 30
0.0
  0
VERTEX
  5
16D
  8
WINDOW
 10
1673.475668666935
 20
659.3726670713785
 30
0.0
  0
VERTEX
  5
16E
  8
WINDOW
 10
1573.874342586038
 20
665.3487466362322
 30
0.0
  0
VERTEX
  5
16F
  8
WINDOW
 10
1473.639639579642
 20
670.2254749759867
 30
0.0
  0
VERTEX
  5
170
  8
WINDOW
 10
1373.874163527417
 20
673.3527423283545
 30
0.0
  0
VERTEX
  5
171
  8
WINDOW
 10
1274.472920901106
 20
677.3287920334069
 30
0.0
  0
VERTEX
  5
172
  8
WINDOW
 10
1174.637110993616
 20
678.5313958038893
 30
0.0
  0
SEQEND
  5
208
  8
WINDOW
  0
POLYLINE
  5
7C
  8
PERSPEX
 66
     1
 10
0.0
 20
0.0
 30
0.0
 70
     1
  0
VERTEX
  5
173
  8
PERSPEX
 10
368.9254982675614
 20
73.39766035397089
 30
0.0
  0
VERTEX
  5
174
  8
PERSPEX
 10
468.6692687866578
 20
70.8488111764679
 30
0.0
  0
VERTEX
  5
175
  8
PERSPEX
 10
568.3567538643193
 20
68.30140031536668
 30
0.0
  0
VERTEX
  5
176
  8
PERSPEX
 10
767.9037131059566
 20
67.19368890274245
 30
0.0
  0
VERTEX
  5
177
  8
PERSPEX
 10
867.7577286685147
 20
67.63790162761973
 30
0.0
  0
VERTEX
  5
178
  8
PERSPEX
 10
967.4618619043912
 20
68.08144758274949
 30
0.0
  0
VERTEX
  5
179
  8
PERSPEX
 10
1067.476974324892
 20
70.52629676322535
 30
0.0
  0
VERTEX
  5
17A
  8
PERSPEX
 10
1167.630896971564
 20
70.97184366121816
 30
0.0
  0
VERTEX
  5
17B
  8
PERSPEX
 10
1267.340617067069
 20
72.41237636259673
 30
0.0
  0
VERTEX
  5
17C
  8
PERSPEX
 10
1366.906436579153
 20
74.84624266886138
 30
0.0
  0
VERTEX
  5
17D
  8
PERSPEX
 10
1466.63342555759
 20
79.27776448912073
 30
0.0
  0
VERTEX
  5
17E
  8
PERSPEX
 10
1566.300267836034
 20
83.70661359845036
 30
0.0
  0
VERTEX
  5
17F
  8
PERSPEX
 10
1620.094653968482
 20
87.39124812679725
 30
0.0
  0
VERTEX
  5
180
  8
PERSPEX
 10
1666.469675084259
 20
90.15727080072402
 30
0.0
  0
VERTEX
  5
181
  8
PERSPEX
 10
1766.573770987721
 20
94.60554994599586
 30
0.0
  0
VERTEX
  5
182
  8
PERSPEX
 10
1866.089442257789
 20
100.0222615112525
 30
0.0
  0
VERTEX
  5
183
  8
PERSPEX
 10
1995.978326215525
 20
110.2870076429391
 30
0.0
  0
VERTEX
  5
184
  8
PERSPEX
 10
2021.274198950934
 20
111.9527744871224
 30
0.0
  0
VERTEX
  5
185
  8
PERSPEX
 10
1617.422463605193
 20
287.3613892212264
 30
0.0
  0
VERTEX
  5
186
  8
PERSPEX
 10
1470.017261938377
 20
285.3083469917133
 30
0.0
  0
VERTEX
  5
187
  8
PERSPEX
 10
1370.009936568802
 20
282.863688164121
 30
0.0
  0
VERTEX
  5
188
  8
PERSPEX
 10
1269.700533915223
 20
281.4144916901984
 30
0.0
  0
VERTEX
  5
189
  8
PERSPEX
 10
1169.546558812185
 20
280.9689445588472
 30
0.0
  0
VERTEX
  5
18A
  8
PERSPEX
 10
1069.542548483648
 20
280.5240645640224
 30
0.0
  0
VERTEX
  5
18B
  8
PERSPEX
 10
969.5385381551104
 20
280.0791845691977
 30
0.0
  0
VERTEX
  5
18C
  8
PERSPEX
 10
869.3845330606242
 20
279.6336373044254
 30
0.0
  0
VERTEX
  5
18D
  8
PERSPEX
 10
769.0860858996886
 20
280.1904071745899
 30
0.0
  0
VERTEX
  5
18E
  8
PERSPEX
 10
669.0181862627844
 20
281.7466626312857
 30
0.0
  0
VERTEX
  5
18F
  8
PERSPEX
 10
468.8768580214649
 20
283.8584387193313
 30
0.0
  0
VERTEX
  5
190
  8
PERSPEX
 10
368.9644815082493
 20
286.4115964491098
 30
0.0
  0
VERTEX
  5
191
  8
PERSPEX
 10
309.0766612453609
 20
286.7440416150723
 30
0.0
  0
VERTEX
  5
192
  8
PERSPEX
 10
302.6260449542641
 20
146.5212859384968
 30
0.0
 42
0.4124893924663967
  0
SEQEND
  5
209
  8
PERSPEX
  0
POLYLINE
  5
7D
  8
PERSPEX
 66
     1
 10
0.0
 20
0.0
 30
0.0
 70
     1
  0
VERTEX
  5
193
  8
PERSPEX
 10
279.9927436187468
 20
307.3474098206613
 30
0.0
  0
VERTEX
  5
194
  8
PERSPEX
 10
272.6577382968554
 20
147.8999070204183
 30
0.0
 42
0.4139397703990043
  0
VERTEX
  5
195
  8
PERSPEX
 10
367.8633035262575
 20
43.41448766886088
 30
0.0
  0
VERTEX
  5
196
  8
PERSPEX
 10
367.915542719416
 20
43.41367524519953
 30
0.0
  0
VERTEX
  5
197
  8
PERSPEX
 10
467.9028999100132
 20
40.85860146154749
 30
0.0
  0
VERTEX
  5
198
  8
PERSPEX
 10
567.8902571006105
 20
38.30352767789546
 30
0.0
  0
VERTEX
  5
199
  8
PERSPEX
 10
767.8871756657253
 20
37.19331848189368
 30
0.0
  0
VERTEX
  5
19A
  8
PERSPEX
 10
867.8911859942627
 20
37.63819847671837
 30
0.0
  0
VERTEX
  5
19B
  8
PERSPEX
 10
967.8951963227997
 20
38.08307847154306
 30
0.0
  0
VERTEX
  5
19C
  8
PERSPEX
 10
1067.910308743297
 20
40.52792765201889
 30
0.0
  0
VERTEX
  5
19D
  8
PERSPEX
 10
1167.914319071835
 20
40.97280764684358
 30
0.0
  0
VERTEX
  5
19E
  8
PERSPEX
 10
1267.923880446352
 20
42.41767223449384
 30
0.0
  0
VERTEX
  5
19F
  8
PERSPEX
 10
1367.938992866849
 20
44.86252141496968
 30
0.0
  0
VERTEX
  5
1A0
  8
PERSPEX
 10
1467.965207379307
 20
49.30733978109664
 30
0.0
  0
VERTEX
  5
1A1
  8
PERSPEX
 10
1567.991421891764
 20
53.75215814722363
 30
0.0
  0
VERTEX
  5
1A2
  8
PERSPEX
 10
1622.012794088265
 20
57.45234003560545
 30
0.0
  0
VERTEX
  5
1A3
  8
PERSPEX
 10
1668.028738496181
 20
60.19694569900173
 30
0.0
  0
VERTEX
  5
1A4
  8
PERSPEX
 10
1768.054953008639
 20
64.6417640651287
 30
0.0
  0
VERTEX
  5
1A5
  8
PERSPEX
 10
1868.086718567077
 20
70.08656702408125
 30
0.0
  0
VERTEX
  5
1A6
  8
PERSPEX
 10
1998.145777140181
 20
80.3647615677614
 30
0.0
  0
VERTEX
  5
1A7
  8
PERSPEX
 10
2068.172453867871
 20
84.97611131328865
 30
0.0
  0
VERTEX
  5
1A8
  8
PERSPEX
 10
2106.186407354927
 20
87.14021212579927
 30
0.0
 42
0.7914677261140937
  0
VERTEX
  5
1A9
  8
PERSPEX
 10
2109.573460666209
 20
106.3085238732966
 30
0.0
  0
VERTEX
  5
1AA
  8
PERSPEX
 10
1629.373502666632
 20
314.8781598461856
 30
0.0
 42
0.1053601096712962
  0
VERTEX
  5
1AB
  8
PERSPEX
 10
1617.117878281572
 20
317.3600566401147
 30
0.0
  0
VERTEX
  5
1AC
  8
PERSPEX
 10
1469.441785609989
 20
315.3032414726993
 30
0.0
  0
VERTEX
  5
1AD
  8
PERSPEX
 10
1369.426673189492
 20
312.8583922922234
 30
0.0
  0
VERTEX
  5
1AE
  8
PERSPEX
 10
1269.417111814974
 20
311.4135277045732
 30
0.0
  0
VERTEX
  5
1AF
  8
PERSPEX
 10
1169.413101486437
 20
310.9686477097485
 30
0.0
  0
VERTEX
  5
1B0
  8
PERSPEX
 10
1069.4090911579
 20
310.5237677149238
 30
0.0
  0
VERTEX
  5
1B1
  8
PERSPEX
 10
969.4050808293623
 20
310.0788877200991
 30
0.0
  0
VERTEX
  5
1B2
  8
PERSPEX
 10
869.4010705008252
 20
309.6340077252744
 30
0.0
  0
VERTEX
  5
1B3
  8
PERSPEX
 10
769.4026112182676
 20
310.1891123232753
 30
0.0
  0
VERTEX
  5
1B4
  8
PERSPEX
 10
669.4097029816904
 20
311.7442015141017
 30
0.0
  0
VERTEX
  5
1B5
  8
PERSPEX
 10
469.4183354625557
 20
313.8543953029291
 30
0.0
  0
VERTEX
  5
1B6
  8
PERSPEX
 10
369.4309782719585
 20
316.4094690865812
 30
0.0
  0
VERTEX
  5
1B7
  8
PERSPEX
 10
290.0358932999596
 20
316.8502016442908
 30
0.0
 42
0.4013334512130333
  0
SEQEND
  5
20A
  8
PERSPEX
  0
POLYLINE
  5
7E
  8
PERSPEX
 66
     1
 10
0.0
 20
0.0
 30
0.0
 70
     1
  0
VERTEX
  5
1B8
  8
PERSPEX
 10
375.9317122896134
 20
676.1055791111365
 30
0.0
  0
VERTEX
  5
1B9
  8
PERSPEX
 10
475.6754828087098
 20
678.6544282886396
 30
0.0
  0
VERTEX
  5
1BA
  8
PERSPEX
 10
575.3629678863714
 20
681.2018391497407
 30
0.0
  0
VERTEX
  5
1BB
  8
PERSPEX
 10
774.9099271280087
 20
682.309550562365
 30
0.0
  0
VERTEX
  5
1BC
  8
PERSPEX
 10
874.7639426905668
 20
681.8653378374877
 30
0.0
  0
VERTEX
  5
1BD
  8
PERSPEX
 10
974.4680759264432
 20
681.4217918823579
 30
0.0
  0
VERTEX
  5
1BE
  8
PERSPEX
 10
1074.483188346944
 20
678.9769427018821
 30
0.0
  0
VERTEX
  5
1BF
  8
PERSPEX
 10
1174.637110993616
 20
678.5313958038893
 30
0.0
  0
VERTEX
  5
1C0
  8
PERSPEX
 10
1274.346831089121
 20
677.0908631025106
 30
0.0
  0
VERTEX
  5
1C1
  8
PERSPEX
 10
1373.912650601205
 20
674.6569967962461
 30
0.0
  0
VERTEX
  5
1C2
  8
PERSPEX
 10
1473.639639579642
 20
670.2254749759867
 30
0.0
  0
VERTEX
  5
1C3
  8
PERSPEX
 10
1573.306481858086
 20
665.796625866657
 30
0.0
  0
VERTEX
  5
1C4
  8
PERSPEX
 10
1627.100867990534
 20
662.1119913383102
 30
0.0
  0
VERTEX
  5
1C5
  8
PERSPEX
 10
1673.475889106311
 20
659.3459686643835
 30
0.0
  0
VERTEX
  5
1C6
  8
PERSPEX
 10
1773.579985009773
 20
654.8976895191115
 30
0.0
  0
VERTEX
  5
1C7
  8
PERSPEX
 10
1873.095656279841
 20
649.480977953855
 30
0.0
  0
VERTEX
  5
1C8
  8
PERSPEX
 10
2002.984540237577
 20
639.2162318221683
 30
0.0
  0
VERTEX
  5
1C9
  8
PERSPEX
 10
2028.280412972986
 20
637.550464977985
 30
0.0
  0
VERTEX
  5
1CA
  8
PERSPEX
 10
1624.428677627245
 20
462.141850243881
 30
0.0
  0
VERTEX
  5
1CB
  8
PERSPEX
 10
1477.023475960429
 20
464.1948924733941
 30
0.0
  0
VERTEX
  5
1CC
  8
PERSPEX
 10
1377.016150590854
 20
466.6395513009865
 30
0.0
  0
VERTEX
  5
1CD
  8
PERSPEX
 10
1276.706747937275
 20
468.088747774909
 30
0.0
  0
VERTEX
  5
1CE
  8
PERSPEX
 10
1176.552772834237
 20
468.5342949062602
 30
0.0
  0
VERTEX
  5
1CF
  8
PERSPEX
 10
1076.5487625057
 20
468.979174901085
 30
0.0
  0
VERTEX
  5
1D0
  8
PERSPEX
 10
976.5447521771624
 20
469.4240548959097
 30
0.0
  0
VERTEX
  5
1D1
  8
PERSPEX
 10
876.3907470826763
 20
469.869602160682
 30
0.0
  0
VERTEX
  5
1D2
  8
PERSPEX
 10
776.0922999217406
 20
469.3128322905175
 30
0.0
  0
VERTEX
  5
1D3
  8
PERSPEX
 10
676.0244002848365
 20
467.7565768338217
 30
0.0
  0
VERTEX
  5
1D4
  8
PERSPEX
 10
475.883072043517
 20
465.6448007457761
 30
0.0
  0
VERTEX
  5
1D5
  8
PERSPEX
 10
375.9706955303014
 20
463.0916430159976
 30
0.0
  0
VERTEX
  5
1D6
  8
PERSPEX
 10
316.082875267413
 20
462.7591978500352
 30
0.0
  0
VERTEX
  5
1D7
  8
PERSPEX
 10
309.6322589763162
 20
602.9819535266106
 30
0.0
 42
-0.4124893924663967
  0
SEQEND
  5
20B
  8
PERSPEX
  0
POLYLINE
  5
7F
  8
PERSPEX
 66
     1
 10
0.0
 20
0.0
 30
0.0
 70
     1
  0
VERTEX
  5
1D8
  8
PERSPEX
 10
286.9989576407988
 20
442.1558296444462
 30
0.0
  0
VERTEX
  5
1D9
  8
PERSPEX
 10
279.6639523189075
 20
601.603332444689
 30
0.0
 42
-0.4139397703990043
  0
VERTEX
  5
1DA
  8
PERSPEX
 10
374.8695175483095
 20
706.0887517962465
 30
0.0
  0
VERTEX
  5
1DB
  8
PERSPEX
 10
374.921756741468
 20
706.0895642199079
 30
0.0
  0
VERTEX
  5
1DC
  8
PERSPEX
 10
474.9091139320653
 20
708.64463800356
 30
0.0
  0
VERTEX
  5
1DD
  8
PERSPEX
 10
574.8964711226625
 20
711.199711787212
 30
0.0
  0
VERTEX
  5
1DE
  8
PERSPEX
 10
774.8933896877774
 20
712.3099209832137
 30
0.0
  0
VERTEX
  5
1DF
  8
PERSPEX
 10
874.8974000163148
 20
711.8650409883891
 30
0.0
  0
VERTEX
  5
1E0
  8
PERSPEX
 10
974.9014103448518
 20
711.4201609935644
 30
0.0
  0
VERTEX
  5
1E1
  8
PERSPEX
 10
1074.916522765349
 20
708.9753118130885
 30
0.0
  0
VERTEX
  5
1E2
  8
PERSPEX
 10
1174.920533093887
 20
708.5304318182639
 30
0.0
  0
VERTEX
  5
1E3
  8
PERSPEX
 10
1274.930094468404
 20
707.0855672306136
 30
0.0
  0
VERTEX
  5
1E4
  8
PERSPEX
 10
1374.945206888901
 20
704.6407180501377
 30
0.0
  0
VERTEX
  5
1E5
  8
PERSPEX
 10
1474.971421401359
 20
700.1958996840108
 30
0.0
  0
VERTEX
  5
1E6
  8
PERSPEX
 10
1574.997635913816
 20
695.7510813178837
 30
0.0
  0
VERTEX
  5
1E7
  8
PERSPEX
 10
1629.019008110317
 20
692.0508994295019
 30
0.0
  0
VERTEX
  5
1E8
  8
PERSPEX
 10
1675.034952518233
 20
689.3062937661057
 30
0.0
  0
VERTEX
  5
1E9
  8
PERSPEX
 10
1775.061167030691
 20
684.8614753999786
 30
0.0
  0
VERTEX
  5
1EA
  8
PERSPEX
 10
1875.092932589129
 20
679.4166724410261
 30
0.0
  0
VERTEX
  5
1EB
  8
PERSPEX
 10
2005.151991162233
 20
669.138477897346
 30
0.0
  0
VERTEX
  5
1EC
  8
PERSPEX
 10
2075.178667889923
 20
664.5271281518187
 30
0.0
  0
VERTEX
  5
1ED
  8
PERSPEX
 10
2113.192621376979
 20
662.3630273393081
 30
0.0
 42
-0.7914677261140937
  0
VERTEX
  5
1EE
  8
PERSPEX
 10
2116.579674688261
 20
643.1947155918108
 30
0.0
  0
VERTEX
  5
1EF
  8
PERSPEX
 10
1636.379716688684
 20
434.6250796189219
 30
0.0
 42
-0.1053601096712962
  0
VERTEX
  5
1F0
  8
PERSPEX
 10
1624.124092303624
 20
432.1431828249927
 30
0.0
  0
VERTEX
  5
1F1
  8
PERSPEX
 10
1476.447999632041
 20
434.1999979924082
 30
0.0
  0
VERTEX
  5
1F2
  8
PERSPEX
 10
1376.432887211544
 20
436.644847172884
 30
0.0
  0
VERTEX
  5
1F3
  8
PERSPEX
 10
1276.423325837026
 20
438.0897117605342
 30
0.0
  0
VERTEX
  5
1F4
  8
PERSPEX
 10
1176.419315508489
 20
438.5345917553589
 30
0.0
  0
VERTEX
  5
1F5
  8
PERSPEX
 10
1076.415305179952
 20
438.9794717501836
 30
0.0
  0
VERTEX
  5
1F6
  8
PERSPEX
 10
976.4112948514144
 20
439.4243517450083
 30
0.0
  0
VERTEX
  5
1F7
  8
PERSPEX
 10
876.4072845228773
 20
439.869231739833
 30
0.0
  0
VERTEX
  5
1F8
  8
PERSPEX
 10
776.4088252403196
 20
439.3141271418321
 30
0.0
  0
VERTEX
  5
1F9
  8
PERSPEX
 10
676.4159170037425
 20
437.7590379510057
 30
0.0
  0
VERTEX
  5
1FA
  8
PERSPEX
 10
476.4245494846077
 20
435.6488441621783
 30
0.0
  0
VERTEX
  5
1FB
  8
PERSPEX
 10
376.4371922940105
 20
433.0937703785262
 30
0.0
  0
VERTEX
  5
1FC
  8
PERSPEX
 10
297.0421073220116
 20
432.6530378208166
 30
0.0
 42
-0.4013334512130333
  0
SEQEND
  5
20C
  8
PERSPEX
  0
ENDSEC
  0
EOF
