  0
SECTION
  2
HEADER
  9
$ACADVER
  1
AC1009
  9
$DWGCODEPAGE
  3
ansi_1252
  9
$INSBASE
 10
0.0
 20
0.0
 30
0.0
  9
$EXTMIN
 10
29.47651006711409
 20
29.46462945190826
 30
0.0
  9
$EXTMAX
 10
648.6844544452497
 20
709.476510067114
 30
0.0
  9
$LIMMIN
 10
0.0
 20
0.0
  9
$LIMMAX
 10
12.0
 20
9.0
  9
$ORTHOMODE
 70
     0
  9
$REGENMODE
 70
     1
  9
$FILLMODE
 70
     1
  9
$QTEXTMODE
 70
     0
  9
$MIRRTEXT
 70
     1
  9
$DRAGMODE
 70
     2
  9
$LTSCALE
 40
1.0
  9
$OSMODE
 70
    37
  9
$ATTMODE
 70
     1
  9
$TEXTSIZE
 40
0.2
  9
$TRACEWID
 40
0.05
  9
$TEXTSTYLE
  7
STANDARD
  9
$CLAYER
  8
0
  9
$CELTYPE
  6
BYLAYER
  9
$CECOLOR
 62
   256
  9
$DIMSCALE
 40
1.0
  9
$DIMASZ
 40
0.18
  9
$DIMEXO
 40
0.0625
  9
$DIMDLI
 40
0.38
  9
$DIMRND
 40
0.0
  9
$DIMDLE
 40
0.0
  9
$DIMEXE
 40
0.18
  9
$DIMTP
 40
0.0
  9
$DIMTM
 40
0.0
  9
$DIMTXT
 40
0.18
  9
$DIMCEN
 40
0.09
  9
$DIMTSZ
 40
0.0
  9
$DIMTOL
 70
     0
  9
$DIMLIM
 70
     0
  9
$DIMTIH
 70
     1
  9
$DIMTOH
 70
     1
  9
$DIMSE1
 70
     0
  9
$DIMSE2
 70
     0
  9
$DIMTAD
 70
     0
  9
$DIMZIN
 70
     0
  9
$DIMBLK
  1

  9
$DIMASO
 70
     1
  9
$DIMSHO
 70
     1
  9
$DIMPOST
  1

  9
$DIMAPOST
  1

  9
$DIMALT
 70
     0
  9
$DIMALTD
 70
     2
  9
$DIMALTF
 40
25.4
  9
$DIMLFAC
 40
1.0
  9
$DIMTOFL
 70
     0
  9
$DIMTVP
 40
0.0
  9
$DIMTIX
 70
     0
  9
$DIMSOXD
 70
     0
  9
$DIMSAH
 70
     0
  9
$DIMBLK1
  1

  9
$DIMBLK2
  1

  9
$DIMSTYLE
  2
STANDARD
  9
$DIMCLRD
 70
     0
  9
$DIMCLRE
 70
     0
  9
$DIMCLRT
 70
     0
  9
$DIMTFAC
 40
1.0
  9
$DIMGAP
 40
0.09
  9
$LUNITS
 70
     2
  9
$LUPREC
 70
     4
  9
$SKETCHINC
 40
0.1
  9
$FILLETRAD
 40
0.5
  9
$AUNITS
 70
     0
  9
$AUPREC
 70
     0
  9
$MENU
  1
.
  9
$ELEVATION
 40
0.0
  9
$PELEVATION
 40
0.0
  9
$THICKNESS
 40
0.0
  9
$LIMCHECK
 70
     0
  9
$CHAMFERA
 40
0.0
  9
$CHAMFERB
 40
0.0
  9
$SKPOLY
 70
     0
  9
$TDCREATE
 40
2454910.5
  9
$TDUPDATE
 40
2459167.715439896
  9
$TDINDWG
 40
0.0000000116
  9
$TDUSRTIMER
 40
0.0000000116
  9
$USRTIMER
 70
     1
  9
$ANGBASE
 50
0.0
  9
$ANGDIR
 70
     0
  9
$PDMODE
 70
     0
  9
$PDSIZE
 40
0.0
  9
$PLINEWID
 40
0.0
  9
$COORDS
 70
     1
  9
$SPLFRAME
 70
     0
  9
$SPLINETYPE
 70
     6
  9
$SPLINESEGS
 70
     8
  9
$ATTDIA
 70
     0
  9
$ATTREQ
 70
     1
  9
$HANDLING
 70
     1
  9
$HANDSEED
  5
A98
  9
$SURFTAB1
 70
     6
  9
$SURFTAB2
 70
     6
  9
$SURFTYPE
 70
     6
  9
$SURFU
 70
     6
  9
$SURFV
 70
     6
  9
$UCSNAME
  2

  9
$UCSORG
 10
0.0
 20
0.0
 30
0.0
  9
$UCSXDIR
 10
1.0
 20
0.0
 30
0.0
  9
$UCSYDIR
 10
0.0
 20
1.0
 30
0.0
  9
$PUCSNAME
  2

  9
$PUCSORG
 10
0.0
 20
0.0
 30
0.0
  9
$PUCSXDIR
 10
1.0
 20
0.0
 30
0.0
  9
$PUCSYDIR
 10
0.0
 20
1.0
 30
0.0
  9
$USERI1
 70
     0
  9
$USERI2
 70
     0
  9
$USERI3
 70
     0
  9
$USERI4
 70
     0
  9
$USERI5
 70
     0
  9
$USERR1
 40
0.0
  9
$USERR2
 40
0.0
  9
$USERR3
 40
0.0
  9
$USERR4
 40
0.0
  9
$USERR5
 40
0.0
  9
$WORLDVIEW
 70
     1
  9
$SHADEDGE
 70
     3
  9
$SHADEDIF
 70
    70
  9
$TILEMODE
 70
     1
  9
$MAXACTVP
 70
    64
  9
$PLIMCHECK
 70
     0
  9
$PEXTMIN
 10
1.000000000000000E+20
 20
1.000000000000000E+20
 30
1.000000000000000E+20
  9
$PEXTMAX
 10
-1.000000000000000E+20
 20
-1.000000000000000E+20
 30
-1.000000000000000E+20
  9
$PLIMMIN
 10
0.0
 20
0.0
  9
$PLIMMAX
 10
12.0
 20
9.0
  9
$UNITMODE
 70
     0
  9
$VISRETAIN
 70
     1
  9
$PLINEGEN
 70
     0
  9
$PSLTSCALE
 70
     1
  0
ENDSEC
  0
SECTION
  2
TABLES
  0
TABLE
  2
VPORT
 70
     1
  0
VPORT
  2
*ACTIVE
 70
     0
 10
0.0
 20
0.0
 11
1.0
 21
1.0
 12
10.42990654205607
 22
4.5
 13
0.0
 23
0.0
 14
0.5
 24
0.5
 15
0.5
 25
0.5
 16
0.0
 26
0.0
 36
1.0
 17
0.0
 27
0.0
 37
0.0
 40
9.0
 41
1.972972972850329
 42
50.0
 43
0.0
 44
0.0
 50
0.0
 51
0.0
 71
     0
 72
   100
 73
     1
 74
     3
 75
     0
 76
     0
 77
     0
 78
     0
  0
ENDTAB
  0
TABLE
  2
LTYPE
 70
     2
  0
LTYPE
  2
CONTINUOUS
 70
     0
  3
Solid line
 72
    65
 73
     0
 40
0.0
  0
LTYPE
  2
CONTINUOUS2
 70
     0
  3
Solid Line
 72
    65
 73
     0
 40
0.0
  0
ENDTAB
  0
TABLE
  2
LAYER
 70
     2
  0
LAYER
  2
0
 70
     0
 62
     7
  6
CONTINUOUS
  0
LAYER
  2
LAYER_1
 70
     0
 62
    18
  6
CONTINUOUS
  0
ENDTAB
  0
TABLE
  2
STYLE
 70
     1
  0
STYLE
  2
STANDARD
 70
     0
 40
0.0
 41
1.0
 50
0.0
 71
     0
 42
0.2
  3
txt
  4

  0
ENDTAB
  0
TABLE
  2
VIEW
 70
     0
  0
ENDTAB
  0
TABLE
  2
UCS
 70
     0
  0
ENDTAB
  0
TABLE
  2
APPID
 70
     1
  0
APPID
  2
ACAD
 70
     0
  0
ENDTAB
  0
TABLE
  2
DIMSTYLE
 70
     1
  0
DIMSTYLE
  2
STANDARD
 70
     0
  3

  4

  5

  6

  7

 40
1.0
 41
0.18
 42
0.0625
 43
0.38
 44
0.18
 45
0.0
 46
0.0
 47
0.0
 48
0.0
140
0.18
141
0.09
142
0.0
143
25.4
144
1.0
145
0.0
146
1.0
147
0.09
 71
     0
 72
     0
 73
     1
 74
     1
 75
     0
 76
     0
 77
     0
 78
     0
170
     0
171
     2
172
     0
173
     0
174
     0
175
     0
176
     0
177
     0
178
     0
  0
ENDTAB
  0
ENDSEC
  0
SECTION
  2
BLOCKS
  0
BLOCK
  8
0
  2
$MODEL_SPACE
 70
     0
 10
0.0
 20
0.0
 30
0.0
  3
$MODEL_SPACE
  1

  0
ENDBLK
  5
21
  8
0
  0
BLOCK
 67
     1
  8
0
  2
$PAPER_SPACE
 70
     0
 10
0.0
 20
0.0
 30
0.0
  3
$PAPER_SPACE
  1

  0
ENDBLK
  5
1D
 67
     1
  8
0
  0
ENDSEC
  0
SECTION
  2
ENTITIES
  0
POLYLINE
  5
70
  8
LAYER_1
 66
     1
 10
0.0
 20
0.0
 30
0.0
 70
     1
  0
VERTEX
  5
86
  8
LAYER_1
 10
62.97763358123768
 20
695.7439904234501
 30
0.0
  0
VERTEX
  5
87
  8
LAYER_1
 10
29.49558660390733
 20
45.23564914960254
 30
0.0
 42
0.441202528293022
  0
VERTEX
  5
88
  8
LAYER_1
 10
45.07311028573622
 20
29.47651006711409
 30
0.0
  0
VERTEX
  5
89
  8
LAYER_1
 10
633.6844856213271
 20
29.47651006711409
 30
0.0
 42
0.4148108468594685
  0
VERTEX
  5
8A
  8
LAYER_1
 10
648.6844544452497
 20
44.5070924370438
 30
0.0
  0
VERTEX
  5
8B
  8
LAYER_1
 10
648.6844544452497
 20
694.476510067114
 30
0.0
 42
0.4142135623730931
  0
VERTEX
  5
8C
  8
LAYER_1
 10
633.6844544452497
 20
709.476510067114
 30
0.0
  0
VERTEX
  5
8D
  8
LAYER_1
 10
77.92398743582567
 20
709.476510067114
 30
0.0
 42
0.3896464808605019
  0
SEQEND
  5
A89
  8
LAYER_1
  0
POLYLINE
  5
71
  8
LAYER_1
 66
     1
 10
0.0
 20
0.0
 30
0.0
 70
     1
  0
VERTEX
  5
8E
  8
LAYER_1
 10
344.3834544452496
 20
381.2735100671142
 30
0.0
 42
-0.4142135623730951
  0
VERTEX
  5
8F
  8
LAYER_1
 10
350.8834544452496
 20
374.7735100671142
 30
0.0
 42
-0.4142135623730951
  0
VERTEX
  5
90
  8
LAYER_1
 10
344.3834544452496
 20
368.2735100671142
 30
0.0
 42
-0.4142135623730951
  0
VERTEX
  5
91
  8
LAYER_1
 10
337.8834544452496
 20
374.7735100671142
 30
0.0
 42
-0.4142135623730951
  0
SEQEND
  5
A8A
  8
LAYER_1
  0
POLYLINE
  5
72
  8
LAYER_1
 66
     1
 10
0.0
 20
0.0
 30
0.0
 70
     1
  0
VERTEX
  5
92
  8
LAYER_1
 10
235.1166326919994
 20
585.1636618820039
 30
0.0
  0
VERTEX
  5
93
  8
LAYER_1
 10
235.1166326919994
 20
583.8297402690429
 30
0.0
  0
VERTEX
  5
94
  8
LAYER_1
 10
234.4874137554802
 20
583.701305248876
 30
0.0
  0
VERTEX
  5
95
  8
LAYER_1
 10
234.1875912138846
 20
583.6286380664133
 30
0.0
  0
VERTEX
  5
96
  8
LAYER_1
 10
233.8976266233982
 20
583.5503377690309
 30
0.0
  0
VERTEX
  5
97
  8
LAYER_1
 10
233.6175199840212
 20
583.4664043567288
 30
0.0
  0
VERTEX
  5
98
  8
LAYER_1
 10
233.3472712957534
 20
583.3768378295072
 30
0.0
  0
VERTEX
  5
99
  8
LAYER_1
 10
233.0868805585949
 20
583.2816381873658
 30
0.0
  0
VERTEX
  5
9A
  8
LAYER_1
 10
232.8363477725458
 20
583.1808054303051
 30
0.0
  0
VERTEX
  5
9B
  8
LAYER_1
 10
232.5956729376059
 20
583.0743395583247
 30
0.0
  0
VERTEX
  5
9C
  8
LAYER_1
 10
232.3648560537753
 20
582.9622405714247
 30
0.0
  0
VERTEX
  5
9D
  8
LAYER_1
 10
232.1438971210541
 20
582.844508469605
 30
0.0
  0
VERTEX
  5
9E
  8
LAYER_1
 10
231.9327961394421
 20
582.7211432528659
 30
0.0
  0
VERTEX
  5
9F
  8
LAYER_1
 10
231.7315531089394
 20
582.5921449212071
 30
0.0
  0
VERTEX
  5
A0
  8
LAYER_1
 10
231.540168029546
 20
582.4575134746286
 30
0.0
  0
VERTEX
  5
A1
  8
LAYER_1
 10
231.358640901262
 20
582.3172489131307
 30
0.0
  0
VERTEX
  5
A2
  8
LAYER_1
 10
231.1869717240872
 20
582.171351236713
 30
0.0
  0
VERTEX
  5
A3
  8
LAYER_1
 10
230.9498175859721
 20
581.9432100824692
 30
0.0
  0
VERTEX
  5
A4
  8
LAYER_1
 10
230.7160433168087
 20
581.7004228294345
 30
0.0
  0
VERTEX
  5
A5
  8
LAYER_1
 10
230.4856489165971
 20
581.4429894776089
 30
0.0
  0
VERTEX
  5
A6
  8
LAYER_1
 10
230.2586343853373
 20
581.1709100269923
 30
0.0
  0
VERTEX
  5
A7
  8
LAYER_1
 10
230.0349997230292
 20
580.8841844775845
 30
0.0
  0
VERTEX
  5
A8
  8
LAYER_1
 10
229.8147449296729
 20
580.5828128293861
 30
0.0
  0
VERTEX
  5
A9
  8
LAYER_1
 10
229.5978700052683
 20
580.2667950823966
 30
0.0
  0
VERTEX
  5
AA
  8
LAYER_1
 10
229.3843749498155
 20
579.9361312366161
 30
0.0
  0
VERTEX
  5
AB
  8
LAYER_1
 10
229.1742597633144
 20
579.5908212920447
 30
0.0
  0
VERTEX
  5
AC
  8
LAYER_1
 10
228.9675244457652
 20
579.2308652486823
 30
0.0
  0
VERTEX
  5
AD
  8
LAYER_1
 10
228.7641689971676
 20
578.8562631065291
 30
0.0
  0
VERTEX
  5
AE
  8
LAYER_1
 10
228.5641934175219
 20
578.4670148655848
 30
0.0
  0
VERTEX
  5
AF
  8
LAYER_1
 10
228.3675977068279
 20
578.0631205258496
 30
0.0
  0
VERTEX
  5
B0
  8
LAYER_1
 10
228.1743818650856
 20
577.6445800873233
 30
0.0
  0
VERTEX
  5
B1
  8
LAYER_1
 10
227.9845458922952
 20
577.2113935500063
 30
0.0
  0
VERTEX
  5
B2
  8
LAYER_1
 10
227.7980897884564
 20
576.763560913898
 30
0.0
  0
VERTEX
  5
B3
  8
LAYER_1
 10
210.7455243038465
 20
535.1596273637078
 30
0.0
  0
VERTEX
  5
B4
  8
LAYER_1
 10
209.4116026908854
 20
535.1596273637078
 30
0.0
  0
VERTEX
  5
B5
  8
LAYER_1
 10
191.0972194642853
 20
577.3043399461794
 30
0.0
  0
VERTEX
  5
B6
  8
LAYER_1
 10
190.7586692576174
 20
578.0760766901644
 30
0.0
  0
VERTEX
  5
B7
  8
LAYER_1
 10
190.4460313795796
 20
578.7689498252753
 30
0.0
  0
VERTEX
  5
B8
  8
LAYER_1
 10
190.1593058301721
 20
579.3829593515115
 30
0.0
  0
VERTEX
  5
B9
  8
LAYER_1
 10
189.8984926093946
 20
579.9181052688734
 30
0.0
  0
VERTEX
  5
BA
  8
LAYER_1
 10
189.6635917172474
 20
580.3743875773608
 30
0.0
  0
VERTEX
  5
BB
  8
LAYER_1
 10
189.4546031537302
 20
580.7518062769741
 30
0.0
  0
VERTEX
  5
BC
  8
LAYER_1
 10
189.2715269188433
 20
581.0503613677129
 30
0.0
  0
VERTEX
  5
BD
  8
LAYER_1
 10
189.1143630125864
 20
581.2700528495772
 30
0.0
  0
VERTEX
  5
BE
  8
LAYER_1
 10
188.8825603336449
 20
581.5418506444478
 30
0.0
  0
VERTEX
  5
BF
  8
LAYER_1
 10
188.6378014903884
 20
581.7984390290355
 30
0.0
  0
VERTEX
  5
C0
  8
LAYER_1
 10
188.3800864828167
 20
582.0398180033404
 30
0.0
  0
VERTEX
  5
C1
  8
LAYER_1
 10
188.10941531093
 20
582.2659875673623
 30
0.0
  0
VERTEX
  5
C2
  8
LAYER_1
 10
187.8257879747282
 20
582.4769477211013
 30
0.0
  0
VERTEX
  5
C3
  8
LAYER_1
 10
187.5292044742113
 20
582.6726984645572
 30
0.0
  0
VERTEX
  5
C4
  8
LAYER_1
 10
187.2196648093793
 20
582.8532397977305
 30
0.0
  0
VERTEX
  5
C5
  8
LAYER_1
 10
186.8971689802323
 20
583.0185717206207
 30
0.0
  0
VERTEX
  5
C6
  8
LAYER_1
 10
186.5538306258827
 20
583.16925754472
 30
0.0
  0
VERTEX
  5
C7
  8
LAYER_1
 10
186.1817633854432
 20
583.3058605815204
 30
0.0
  0
VERTEX
  5
C8
  8
LAYER_1
 10
185.7809672589137
 20
583.4283808310215
 30
0.0
  0
VERTEX
  5
C9
  8
LAYER_1
 10
185.3514422462943
 20
583.5368182932239
 30
0.0
  0
VERTEX
  5
CA
  8
LAYER_1
 10
184.893188347585
 20
583.631172968127
 30
0.0
  0
VERTEX
  5
CB
  8
LAYER_1
 10
184.4062055627856
 20
583.7114448557313
 30
0.0
  0
VERTEX
  5
CC
  8
LAYER_1
 10
183.8904938918963
 20
583.7776339560364
 30
0.0
  0
VERTEX
  5
CD
  8
LAYER_1
 10
183.3460533349171
 20
583.8297402690429
 30
0.0
  0
VERTEX
  5
CE
  8
LAYER_1
 10
183.3460533349171
 20
585.1636618820039
 30
0.0
  0
VERTEX
  5
CF
  8
LAYER_1
 10
203.3188255938472
 20
585.1636618820039
 30
0.0
  0
VERTEX
  5
D0
  8
LAYER_1
 10
203.3188255938472
 20
583.8297402690429
 30
0.0
  0
VERTEX
  5
D1
  8
LAYER_1
 10
202.5087836684089
 20
583.7407370533132
 30
0.0
  0
VERTEX
  5
D2
  8
LAYER_1
 10
201.7730988599092
 20
583.6359611158088
 30
0.0
  0
VERTEX
  5
D3
  8
LAYER_1
 10
201.1117711683483
 20
583.5154124565292
 30
0.0
  0
VERTEX
  5
D4
  8
LAYER_1
 10
200.8089912414198
 20
583.4492233562241
 30
0.0
  0
VERTEX
  5
D5
  8
LAYER_1
 10
200.5248005937261
 20
583.379091075475
 30
0.0
  0
VERTEX
  5
D6
  8
LAYER_1
 10
200.259199225267
 20
583.3050156142823
 30
0.0
  0
VERTEX
  5
D7
  8
LAYER_1
 10
200.0121871360426
 20
583.2269969726458
 30
0.0
  0
VERTEX
  5
D8
  8
LAYER_1
 10
199.7837643260528
 20
583.1450351505657
 30
0.0
  0
VERTEX
  5
D9
  8
LAYER_1
 10
199.5739307952978
 20
583.0591301480417
 30
0.0
  0
VERTEX
  5
DA
  8
LAYER_1
 10
199.3826865437774
 20
582.9692819650741
 30
0.0
  0
VERTEX
  5
DB
  8
LAYER_1
 10
199.2100315714917
 20
582.8754906016627
 30
0.0
  0
VERTEX
  5
DC
  8
LAYER_1
 10
199.0559658784406
 20
582.7777560578079
 30
0.0
  0
VERTEX
  5
DD
  8
LAYER_1
 10
198.9204894646243
 20
582.676078333509
 30
0.0
  0
VERTEX
  5
DE
  8
LAYER_1
 10
198.798250870869
 20
582.5705982566396
 30
0.0
  0
VERTEX
  5
DF
  8
LAYER_1
 10
198.6838986380012
 20
582.4614566550724
 30
0.0
  0
VERTEX
  5
E0
  8
LAYER_1
 10
198.5774327660207
 20
582.3486535288074
 30
0.0
  0
VERTEX
  5
E1
  8
LAYER_1
 10
198.4788532549277
 20
582.2321888778447
 30
0.0
  0
VERTEX
  5
E2
  8
LAYER_1
 10
198.3881601047222
 20
582.1120627021842
 30
0.0
  0
VERTEX
  5
E3
  8
LAYER_1
 10
198.3053533154041
 20
581.988275001826
 30
0.0
  0
VERTEX
  5
E4
  8
LAYER_1
 10
198.2304328869734
 20
581.8608257767701
 30
0.0
  0
VERTEX
  5
E5
  8
LAYER_1
 10
198.1633988194302
 20
581.7297150270164
 30
0.0
  0
VERTEX
  5
E6
  8
LAYER_1
 10
198.1042511127744
 20
581.594942752565
 30
0.0
  0
VERTEX
  5
E7
  8
LAYER_1
 10
198.0529897670061
 20
581.4565089534158
 30
0.0
  0
VERTEX
  5
E8
  8
LAYER_1
 10
198.0096147821252
 20
581.3144136295689
 30
0.0
  0
VERTEX
  5
E9
  8
LAYER_1
 10
197.9741261581317
 20
581.1686567810243
 30
0.0
  0
VERTEX
  5
EA
  8
LAYER_1
 10
197.9465238950256
 20
581.019238407782
 30
0.0
  0
VERTEX
  5
EB
  8
LAYER_1
 10
197.926807992807
 20
580.8661585098419
 30
0.0
  0
VERTEX
  5
EC
  8
LAYER_1
 10
197.9149784514759
 20
580.709417087204
 30
0.0
  0
VERTEX
  5
ED
  8
LAYER_1
 10
197.9110352710322
 20
580.5490141398684
 30
0.0
  0
VERTEX
  5
EE
  8
LAYER_1
 10
197.9175133531897
 20
580.315803182197
 30
0.0
  0
VERTEX
  5
EF
  8
LAYER_1
 10
197.9369475996623
 20
580.0668195027508
 30
0.0
  0
VERTEX
  5
F0
  8
LAYER_1
 10
197.96933801045
 20
579.8020631015295
 30
0.0
  0
VERTEX
  5
F1
  8
LAYER_1
 10
198.0146845855528
 20
579.5215339785336
 30
0.0
  0
VERTEX
  5
F2
  8
LAYER_1
 10
198.0729873249707
 20
579.2252321337626
 30
0.0
  0
VERTEX
  5
F3
  8
LAYER_1
 10
198.1442462287036
 20
578.9131575672169
 30
0.0
  0
VERTEX
  5
F4
  8
LAYER_1
 10
198.2284612967516
 20
578.5853102788963
 30
0.0
  0
VERTEX
  5
F5
  8
LAYER_1
 10
198.3256325291147
 20
578.2416902688008
 30
0.0
  0
VERTEX
  5
F6
  8
LAYER_1
 10
198.4357599257928
 20
577.8822975369303
 30
0.0
  0
VERTEX
  5
F7
  8
LAYER_1
 10
198.5588434867861
 20
577.5071320832851
 30
0.0
  0
VERTEX
  5
F8
  8
LAYER_1
 10
198.8438791017178
 20
576.7094830106698
 30
0.0
  0
VERTEX
  5
F9
  8
LAYER_1
 10
199.1807393739098
 20
575.8487430509551
 30
0.0
  0
VERTEX
  5
FA
  8
LAYER_1
 10
199.5694243033621
 20
574.9249122041408
 30
0.0
  0
VERTEX
  5
FB
  8
LAYER_1
 10
212.0073420458366
 20
546.2636234932213
 30
0.0
  0
VERTEX
  5
FC
  8
LAYER_1
 10
223.5439614011753
 20
574.5643928492865
 30
0.0
  0
VERTEX
  5
FD
  8
LAYER_1
 10
223.941096003007
 20
575.5699038624349
 30
0.0
  0
VERTEX
  5
FE
  8
LAYER_1
 10
224.2852793245945
 20
576.4954246437251
 30
0.0
  0
VERTEX
  5
FF
  8
LAYER_1
 10
224.5765113659378
 20
577.3409551931569
 30
0.0
  0
VERTEX
  5
100
  8
LAYER_1
 10
224.8147921270368
 20
578.1064955107304
 30
0.0
  0
VERTEX
  5
101
  8
LAYER_1
 10
224.9140757774947
 20
578.4592693325703
 30
0.0
  0
VERTEX
  5
102
  8
LAYER_1
 10
225.0001216078916
 20
578.7920455964455
 30
0.0
  0
VERTEX
  5
103
  8
LAYER_1
 10
225.0729296182274
 20
579.1048243023562
 30
0.0
  0
VERTEX
  5
104
  8
LAYER_1
 10
225.1324998085022
 20
579.3976054503023
 30
0.0
  0
VERTEX
  5
105
  8
LAYER_1
 10
225.1788321787159
 20
579.6703890402839
 30
0.0
  0
VERTEX
  5
106
  8
LAYER_1
 10
225.2119267288685
 20
579.923175072301
 30
0.0
  0
VERTEX
  5
107
  8
LAYER_1
 10
225.2317834589601
 20
580.1559635463534
 30
0.0
  0
VERTEX
  5
108
  8
LAYER_1
 10
225.2384023689907
 20
580.3687544624413
 30
0.0
  0
VERTEX
  5
109
  8
LAYER_1
 10
225.234318360674
 20
580.4990906588935
 30
0.0
  0
VERTEX
  5
10A
  8
LAYER_1
 10
225.2220663357238
 20
580.6287227159808
 30
0.0
  0
VERTEX
  5
10B
  8
LAYER_1
 10
225.2016462941403
 20
580.7576506337032
 30
0.0
  0
VERTEX
  5
10C
  8
LAYER_1
 10
225.1730582359233
 20
580.8858744120605
 30
0.0
  0
VERTEX
  5
10D
  8
LAYER_1
 10
225.1363021610729
 20
581.0133940510528
 30
0.0
  0
VERTEX
  5
10E
  8
LAYER_1
 10
225.0913780695891
 20
581.1402095506803
 30
0.0
  0
VERTEX
  5
10F
  8
LAYER_1
 10
225.0382859614719
 20
581.2663209109428
 30
0.0
  0
VERTEX
  5
110
  8
LAYER_1
 10
224.9770258367213
 20
581.3917281318404
 30
0.0
  0
VERTEX
  5
111
  8
LAYER_1
 10
224.8300015373197
 20
581.6404301555407
 30
0.0
  0
VERTEX
  5
112
  8
LAYER_1
 10
224.6503051713845
 20
581.8863156217813
 30
0.0
  0
VERTEX
  5
113
  8
LAYER_1
 10
224.4379367389157
 20
582.1293845305619
 30
0.0
  0
VERTEX
  5
114
  8
LAYER_1
 10
224.1928962399131
 20
582.3696368818828
 30
0.0
  0
VERTEX
  5
115
  8
LAYER_1
 10
224.0565748588588
 20
582.4868760861468
 30
0.0
  0
VERTEX
  5
116
  8
LAYER_1
 10
223.9089872479653
 20
582.5997496263483
 30
0.0
  0
VERTEX
  5
117
  8
LAYER_1
 10
223.7501334072326
 20
582.7082575024872
 30
0.0
  0
VERTEX
  5
118
  8
LAYER_1
 10
223.5800133366607
 20
582.8123997145633
 30
0.0
  0
VERTEX
  5
119
  8
LAYER_1
 10
223.3986270362496
 20
582.9121762625767
 30
0.0
  0
VERTEX
  5
11A
  8
LAYER_1
 10
223.2059745059994
 20
583.0075871465274
 30
0.0
  0
VERTEX
  5
11B
  8
LAYER_1
 10
223.0020557459099
 20
583.0986323664154
 30
0.0
  0
VERTEX
  5
11C
  8
LAYER_1
 10
222.7868707559812
 20
583.1853119222408
 30
0.0
  0
VERTEX
  5
11D
  8
LAYER_1
 10
222.5604195362134
 20
583.2676258140034
 30
0.0
  0
VERTEX
  5
11E
  8
LAYER_1
 10
222.3227020866063
 20
583.3455740417033
 30
0.0
  0
VERTEX
  5
11F
  8
LAYER_1
 10
221.8134684978745
 20
583.4883735049152
 30
0.0
  0
VERTEX
  5
120
  8
LAYER_1
 10
221.259169989786
 20
583.6137103118763
 30
0.0
  0
VERTEX
  5
121
  8
LAYER_1
 10
220.6598065623406
 20
583.7215844625866
 30
0.0
  0
VERTEX
  5
122
  8
LAYER_1
 10
220.0469236590883
 20
583.8297402690429
 30
0.0
  0
VERTEX
  5
123
  8
LAYER_1
 10
220.0469236590883
 20
585.1636618820039
 30
0.0
  0
SEQEND
  5
A8B
  8
LAYER_1
  0
POLYLINE
  5
73
  8
LAYER_1
 66
     1
 10
0.0
 20
0.0
 30
0.0
 70
     1
  0
VERTEX
  5
124
  8
LAYER_1
 10
242.2909678536006
 20
587.5430896240425
 30
0.0
  0
VERTEX
  5
125
  8
LAYER_1
 10
242.4784801664867
 20
587.5389352017894
 30
0.0
  0
VERTEX
  5
126
  8
LAYER_1
 10
242.6624717825482
 20
587.5264719350297
 30
0.0
  0
VERTEX
  5
127
  8
LAYER_1
 10
242.8429427017849
 20
587.5056998237637
 30
0.0
  0
VERTEX
  5
128
  8
LAYER_1
 10
243.0198929241968
 20
587.4766188679912
 30
0.0
  0
VERTEX
  5
129
  8
LAYER_1
 10
243.1933224497839
 20
587.4392290677124
 30
0.0
  0
VERTEX
  5
12A
  8
LAYER_1
 10
243.3632312785463
 20
587.3935304229271
 30
0.0
  0
VERTEX
  5
12B
  8
LAYER_1
 10
243.529619410484
 20
587.3395229336356
 30
0.0
  0
VERTEX
  5
12C
  8
LAYER_1
 10
243.6924868455969
 20
587.2772065998374
 30
0.0
  0
VERTEX
  5
12D
  8
LAYER_1
 10
243.851833583885
 20
587.206581421533
 30
0.0
  0
VERTEX
  5
12E
  8
LAYER_1
 10
244.0076596253485
 20
587.127647398722
 30
0.0
  0
VERTEX
  5
12F
  8
LAYER_1
 10
244.1599649699871
 20
587.0404045314049
 30
0.0
  0
VERTEX
  5
130
  8
LAYER_1
 10
244.308749617801
 20
586.9448528195811
 30
0.0
  0
VERTEX
  5
131
  8
LAYER_1
 10
244.4540135687901
 20
586.8409922632511
 30
0.0
  0
VERTEX
  5
132
  8
LAYER_1
 10
244.5957568229546
 20
586.7288228624145
 30
0.0
  0
VERTEX
  5
133
  8
LAYER_1
 10
244.7339793802942
 20
586.6083446170716
 30
0.0
  0
VERTEX
  5
134
  8
LAYER_1
 10
244.8686812408091
 20
586.4795575272223
 30
0.0
  0
VERTEX
  5
135
  8
LAYER_1
 10
244.9974683306584
 20
586.3448556667074
 30
0.0
  0
VERTEX
  5
136
  8
LAYER_1
 10
245.1179465760014
 20
586.2066331093677
 30
0.0
  0
VERTEX
  5
137
  8
LAYER_1
 10
245.2301159768379
 20
586.0648898552033
 30
0.0
  0
VERTEX
  5
138
  8
LAYER_1
 10
245.333976533168
 20
585.9196259042142
 30
0.0
  0
VERTEX
  5
139
  8
LAYER_1
 10
245.4295282449917
 20
585.7708412564002
 30
0.0
  0
VERTEX
  5
13A
  8
LAYER_1
 10
245.516771112309
 20
585.6185359117615
 30
0.0
  0
VERTEX
  5
13B
  8
LAYER_1
 10
245.5957051351199
 20
585.4627098702981
 30
0.0
  0
VERTEX
  5
13C
  8
LAYER_1
 10
245.6663303134243
 20
585.30336313201
 30
0.0
  0
VERTEX
  5
13D
  8
LAYER_1
 10
245.7286466472224
 20
585.1404956968971
 30
0.0
  0
VERTEX
  5
13E
  8
LAYER_1
 10
245.7826541365141
 20
584.9741075649595
 30
0.0
  0
VERTEX
  5
13F
  8
LAYER_1
 10
245.8283527812993
 20
584.8041987361971
 30
0.0
  0
VERTEX
  5
140
  8
LAYER_1
 10
245.8657425815781
 20
584.63076921061
 30
0.0
  0
VERTEX
  5
141
  8
LAYER_1
 10
245.8948235373506
 20
584.453818988198
 30
0.0
  0
VERTEX
  5
142
  8
LAYER_1
 10
245.9155956486166
 20
584.2733480689612
 30
0.0
  0
VERTEX
  5
143
  8
LAYER_1
 10
245.9280589153762
 20
584.0893564528999
 30
0.0
  0
VERTEX
  5
144
  8
LAYER_1
 10
245.9322133376294
 20
583.9018441400137
 30
0.0
  0
VERTEX
  5
145
  8
LAYER_1
 10
245.9280589153762
 20
583.714261413191
 30
0.0
  0
VERTEX
  5
146
  8
LAYER_1
 10
245.9155956486166
 20
583.5300585553202
 30
0.0
  0
VERTEX
  5
147
  8
LAYER_1
 10
245.8948235373506
 20
583.3492355664011
 30
0.0
  0
VERTEX
  5
148
  8
LAYER_1
 10
245.8657425815781
 20
583.1717924464338
 30
0.0
  0
VERTEX
  5
149
  8
LAYER_1
 10
245.8283527812993
 20
582.9977291954181
 30
0.0
  0
VERTEX
  5
14A
  8
LAYER_1
 10
245.7826541365141
 20
582.8270458133543
 30
0.0
  0
VERTEX
  5
14B
  8
LAYER_1
 10
245.7286466472224
 20
582.6597423002422
 30
0.0
  0
VERTEX
  5
14C
  8
LAYER_1
 10
245.6663303134243
 20
582.4958186560818
 30
0.0
  0
VERTEX
  5
14D
  8
LAYER_1
 10
245.5957051351199
 20
582.3352748808733
 30
0.0
  0
VERTEX
  5
14E
  8
LAYER_1
 10
245.516771112309
 20
582.1781109746164
 30
0.0
  0
VERTEX
  5
14F
  8
LAYER_1
 10
245.4295282449917
 20
582.0243269373113
 30
0.0
  0
VERTEX
  5
150
  8
LAYER_1
 10
245.333976533168
 20
581.8739227689581
 30
0.0
  0
VERTEX
  5
151
  8
LAYER_1
 10
245.2301159768379
 20
581.7268984695567
 30
0.0
  0
VERTEX
  5
152
  8
LAYER_1
 10
245.1179465760014
 20
581.5832540391068
 30
0.0
  0
VERTEX
  5
153
  8
LAYER_1
 10
244.9974683306584
 20
581.4429894776088
 30
0.0
  0
VERTEX
  5
154
  8
LAYER_1
 10
244.8686812408091
 20
581.3061047850625
 30
0.0
  0
VERTEX
  5
155
  8
LAYER_1
 10
244.7339793802942
 20
581.1751348631819
 30
0.0
  0
VERTEX
  5
156
  8
LAYER_1
 10
244.5957568229546
 20
581.0526146136806
 30
0.0
  0
VERTEX
  5
157
  8
LAYER_1
 10
244.4540135687901
 20
580.9385440365588
 30
0.0
  0
VERTEX
  5
158
  8
LAYER_1
 10
244.308749617801
 20
580.8329231318162
 30
0.0
  0
VERTEX
  5
159
  8
LAYER_1
 10
244.1599649699871
 20
580.7357518994531
 30
0.0
  0
VERTEX
  5
15A
  8
LAYER_1
 10
244.0076596253485
 20
580.6470303394694
 30
0.0
  0
VERTEX
  5
15B
  8
LAYER_1
 10
243.851833583885
 20
580.5667584518652
 30
0.0
  0
VERTEX
  5
15C
  8
LAYER_1
 10
243.6924868455969
 20
580.4949362366403
 30
0.0
  0
VERTEX
  5
15D
  8
LAYER_1
 10
243.529619410484
 20
580.4315636937949
 30
0.0
  0
VERTEX
  5
15E
  8
LAYER_1
 10
243.3632312785463
 20
580.3766408233287
 30
0.0
  0
VERTEX
  5
15F
  8
LAYER_1
 10
243.1933224497839
 20
580.330167625242
 30
0.0
  0
VERTEX
  5
160
  8
LAYER_1
 10
243.0198929241968
 20
580.2921440995347
 30
0.0
  0
VERTEX
  5
161
  8
LAYER_1
 10
242.8429427017849
 20
580.2625702462069
 30
0.0
  0
VERTEX
  5
162
  8
LAYER_1
 10
242.6624717825482
 20
580.2414460652584
 30
0.0
  0
VERTEX
  5
163
  8
LAYER_1
 10
242.4784801664867
 20
580.2287715566894
 30
0.0
  0
VERTEX
  5
164
  8
LAYER_1
 10
242.2909678536006
 20
580.2245467204996
 30
0.0
  0
VERTEX
  5
165
  8
LAYER_1
 10
242.103385126778
 20
580.2287715566894
 30
0.0
  0
VERTEX
  5
166
  8
LAYER_1
 10
241.9191822689071
 20
580.2414460652584
 30
0.0
  0
VERTEX
  5
167
  8
LAYER_1
 10
241.7383592799879
 20
580.2625702462069
 30
0.0
  0
VERTEX
  5
168
  8
LAYER_1
 10
241.5609161600206
 20
580.2921440995347
 30
0.0
  0
VERTEX
  5
169
  8
LAYER_1
 10
241.386852909005
 20
580.330167625242
 30
0.0
  0
VERTEX
  5
16A
  8
LAYER_1
 10
241.2161695269411
 20
580.3766408233287
 30
0.0
  0
VERTEX
  5
16B
  8
LAYER_1
 10
241.0488660138291
 20
580.4315636937949
 30
0.0
  0
VERTEX
  5
16C
  8
LAYER_1
 10
240.8849423696687
 20
580.4949362366403
 30
0.0
  0
VERTEX
  5
16D
  8
LAYER_1
 10
240.7243985944602
 20
580.5667584518652
 30
0.0
  0
VERTEX
  5
16E
  8
LAYER_1
 10
240.5672346882034
 20
580.6470303394694
 30
0.0
  0
VERTEX
  5
16F
  8
LAYER_1
 10
240.4134506508983
 20
580.7357518994531
 30
0.0
  0
VERTEX
  5
170
  8
LAYER_1
 10
240.263046482545
 20
580.8329231318162
 30
0.0
  0
VERTEX
  5
171
  8
LAYER_1
 10
240.1160221831435
 20
580.9385440365588
 30
0.0
  0
VERTEX
  5
172
  8
LAYER_1
 10
239.9723777526937
 20
581.0526146136806
 30
0.0
  0
VERTEX
  5
173
  8
LAYER_1
 10
239.8321131911957
 20
581.1751348631819
 30
0.0
  0
VERTEX
  5
174
  8
LAYER_1
 10
239.6952284986494
 20
581.3061047850625
 30
0.0
  0
VERTEX
  5
175
  8
LAYER_1
 10
239.5642585767688
 20
581.4429894776088
 30
0.0
  0
VERTEX
  5
176
  8
LAYER_1
 10
239.4417383272675
 20
581.5832540391068
 30
0.0
  0
VERTEX
  5
177
  8
LAYER_1
 10
239.3276677501457
 20
581.7268984695567
 30
0.0
  0
VERTEX
  5
178
  8
LAYER_1
 10
239.2220468454032
 20
581.8739227689581
 30
0.0
  0
VERTEX
  5
179
  8
LAYER_1
 10
239.1248756130401
 20
582.0243269373113
 30
0.0
  0
VERTEX
  5
17A
  8
LAYER_1
 10
239.0361540530564
 20
582.1781109746164
 30
0.0
  0
VERTEX
  5
17B
  8
LAYER_1
 10
238.9558821654521
 20
582.3352748808733
 30
0.0
  0
VERTEX
  5
17C
  8
LAYER_1
 10
238.8840599502272
 20
582.4958186560818
 30
0.0
  0
VERTEX
  5
17D
  8
LAYER_1
 10
238.8206874073817
 20
582.6597423002422
 30
0.0
  0
VERTEX
  5
17E
  8
LAYER_1
 10
238.7657645369156
 20
582.8270458133543
 30
0.0
  0
VERTEX
  5
17F
  8
LAYER_1
 10
238.7192913388289
 20
582.9977291954181
 30
0.0
  0
VERTEX
  5
180
  8
LAYER_1
 10
238.6812678131216
 20
583.1717924464338
 30
0.0
  0
VERTEX
  5
181
  8
LAYER_1
 10
238.6516939597937
 20
583.3492355664011
 30
0.0
  0
VERTEX
  5
182
  8
LAYER_1
 10
238.6305697788452
 20
583.5300585553202
 30
0.0
  0
VERTEX
  5
183
  8
LAYER_1
 10
238.6178952702761
 20
583.714261413191
 30
0.0
  0
VERTEX
  5
184
  8
LAYER_1
 10
238.6136704340864
 20
583.9018441400137
 30
0.0
  0
VERTEX
  5
185
  8
LAYER_1
 10
238.6178248563396
 20
584.0893564528999
 30
0.0
  0
VERTEX
  5
186
  8
LAYER_1
 10
238.6302881230993
 20
584.2733480689612
 30
0.0
  0
VERTEX
  5
187
  8
LAYER_1
 10
238.6510602343653
 20
584.453818988198
 30
0.0
  0
VERTEX
  5
188
  8
LAYER_1
 10
238.6801411901377
 20
584.63076921061
 30
0.0
  0
VERTEX
  5
189
  8
LAYER_1
 10
238.7175309904165
 20
584.8041987361971
 30
0.0
  0
VERTEX
  5
18A
  8
LAYER_1
 10
238.7632296352018
 20
584.9741075649595
 30
0.0
  0
VERTEX
  5
18B
  8
LAYER_1
 10
238.8172371244934
 20
585.1404956968971
 30
0.0
  0
VERTEX
  5
18C
  8
LAYER_1
 10
238.8795534582915
 20
585.30336313201
 30
0.0
  0
VERTEX
  5
18D
  8
LAYER_1
 10
238.950178636596
 20
585.4627098702981
 30
0.0
  0
VERTEX
  5
18E
  8
LAYER_1
 10
239.0291126594068
 20
585.6185359117615
 30
0.0
  0
VERTEX
  5
18F
  8
LAYER_1
 10
239.1163555267241
 20
585.7708412564002
 30
0.0
  0
VERTEX
  5
190
  8
LAYER_1
 10
239.2119072385478
 20
585.9196259042142
 30
0.0
  0
VERTEX
  5
191
  8
LAYER_1
 10
239.3157677948779
 20
586.0648898552033
 30
0.0
  0
VERTEX
  5
192
  8
LAYER_1
 10
239.4279371957144
 20
586.2066331093677
 30
0.0
  0
VERTEX
  5
193
  8
LAYER_1
 10
239.5484154410574
 20
586.3448556667074
 30
0.0
  0
VERTEX
  5
194
  8
LAYER_1
 10
239.6772025309067
 20
586.4795575272223
 30
0.0
  0
VERTEX
  5
195
  8
LAYER_1
 10
239.8120452192946
 20
586.6083446170716
 30
0.0
  0
VERTEX
  5
196
  8
LAYER_1
 10
239.9506902602532
 20
586.7288228624145
 30
0.0
  0
VERTEX
  5
197
  8
LAYER_1
 10
240.0931376537826
 20
586.8409922632511
 30
0.0
  0
VERTEX
  5
198
  8
LAYER_1
 10
240.2393873998827
 20
586.9448528195811
 30
0.0
  0
VERTEX
  5
199
  8
LAYER_1
 10
240.3894394985535
 20
587.0404045314049
 30
0.0
  0
VERTEX
  5
19A
  8
LAYER_1
 10
240.5432939497951
 20
587.127647398722
 30
0.0
  0
VERTEX
  5
19B
  8
LAYER_1
 10
240.7009507536073
 20
587.206581421533
 30
0.0
  0
VERTEX
  5
19C
  8
LAYER_1
 10
240.8624099099903
 20
587.2772065998374
 30
0.0
  0
VERTEX
  5
19D
  8
LAYER_1
 10
241.0276714189441
 20
587.3395229336356
 30
0.0
  0
VERTEX
  5
19E
  8
LAYER_1
 10
241.1967352804685
 20
587.3935304229271
 30
0.0
  0
VERTEX
  5
19F
  8
LAYER_1
 10
241.3696014945637
 20
587.4392290677124
 30
0.0
  0
VERTEX
  5
1A0
  8
LAYER_1
 10
241.5462700612296
 20
587.4766188679912
 30
0.0
  0
VERTEX
  5
1A1
  8
LAYER_1
 10
241.7267409804663
 20
587.5056998237637
 30
0.0
  0
VERTEX
  5
1A2
  8
LAYER_1
 10
241.9110142522737
 20
587.5264719350297
 30
0.0
  0
VERTEX
  5
1A3
  8
LAYER_1
 10
242.0990898766518
 20
587.5389352017894
 30
0.0
  0
SEQEND
  5
A8C
  8
LAYER_1
  0
POLYLINE
  5
74
  8
LAYER_1
 66
     1
 10
0.0
 20
0.0
 30
0.0
 70
     1
  0
VERTEX
  5
1A4
  8
LAYER_1
 10
245.2832784988916
 20
570.2742125265199
 30
0.0
  0
VERTEX
  5
1A5
  8
LAYER_1
 10
245.2832784988916
 20
543.739988009241
 30
0.0
  0
VERTEX
  5
1A6
  8
LAYER_1
 10
245.2903198925411
 20
542.997261807092
 30
0.0
  0
VERTEX
  5
1A7
  8
LAYER_1
 10
245.3114440734896
 20
542.3193164265182
 30
0.0
  0
VERTEX
  5
1A8
  8
LAYER_1
 10
245.3466510417371
 20
541.7061518675198
 30
0.0
  0
VERTEX
  5
1A9
  8
LAYER_1
 10
245.3959407972836
 20
541.1577681300969
 30
0.0
  0
VERTEX
  5
1AA
  8
LAYER_1
 10
245.459313340129
 20
540.6741652142493
 30
0.0
  0
VERTEX
  5
1AB
  8
LAYER_1
 10
245.5367686702735
 20
540.255343119977
 30
0.0
  0
VERTEX
  5
1AC
  8
LAYER_1
 10
245.628306787717
 20
539.9013018472803
 30
0.0
  0
VERTEX
  5
1AD
  8
LAYER_1
 10
245.6793568916759
 20
539.7485740190226
 30
0.0
  0
VERTEX
  5
1AE
  8
LAYER_1
 10
245.7339276924595
 20
539.6120413961588
 30
0.0
  0
VERTEX
  5
1AF
  8
LAYER_1
 10
245.853349728755
 20
539.3633393724584
 30
0.0
  0
VERTEX
  5
1B0
  8
LAYER_1
 10
245.9862912408576
 20
539.130973382025
 30
0.0
  0
VERTEX
  5
1B1
  8
LAYER_1
 10
246.1327522287671
 20
538.9149434248584
 30
0.0
  0
VERTEX
  5
1B2
  8
LAYER_1
 10
246.2927326924838
 20
538.7152495009586
 30
0.0
  0
VERTEX
  5
1B3
  8
LAYER_1
 10
246.4662326320074
 20
538.5318916103256
 30
0.0
  0
VERTEX
  5
1B4
  8
LAYER_1
 10
246.653252047338
 20
538.3648697529595
 30
0.0
  0
VERTEX
  5
1B5
  8
LAYER_1
 10
246.8537909384758
 20
538.2141839288604
 30
0.0
  0
VERTEX
  5
1B6
  8
LAYER_1
 10
247.0678493054205
 20
538.079834138028
 30
0.0
  0
VERTEX
  5
1B7
  8
LAYER_1
 10
247.1839618867008
 20
538.0187148411503
 30
0.0
  0
VERTEX
  5
1B8
  8
LAYER_1
 10
247.3114815256932
 20
537.9615387247165
 30
0.0
  0
VERTEX
  5
1B9
  8
LAYER_1
 10
247.4504082223978
 20
537.9083057887262
 30
0.0
  0
VERTEX
  5
1BA
  8
LAYER_1
 10
247.6007419768146
 20
537.8590160331797
 30
0.0
  0
VERTEX
  5
1BB
  8
LAYER_1
 10
247.9356306587848
 20
537.7722660634179
 30
0.0
  0
VERTEX
  5
1BC
  8
LAYER_1
 10
248.3161475716037
 20
537.7012888154309
 30
0.0
  0
VERTEX
  5
1BD
  8
LAYER_1
 10
248.7422927152713
 20
537.6460842892188
 30
0.0
  0
VERTEX
  5
1BE
  8
LAYER_1
 10
249.2140660897878
 20
537.6066524847815
 30
0.0
  0
VERTEX
  5
1BF
  8
LAYER_1
 10
249.7314676951529
 20
537.5829934021193
 30
0.0
  0
VERTEX
  5
1C0
  8
LAYER_1
 10
250.2944975313668
 20
537.5751070412318
 30
0.0
  0
VERTEX
  5
1C1
  8
LAYER_1
 10
250.2944975313668
 20
536.2772373637563
 30
0.0
  0
VERTEX
  5
1C2
  8
LAYER_1
 10
234.251386240349
 20
536.2772373637563
 30
0.0
  0
VERTEX
  5
1C3
  8
LAYER_1
 10
234.251386240349
 20
537.5751070412318
 30
0.0
  0
VERTEX
  5
1C4
  8
LAYER_1
 10
234.8304704540838
 20
537.5824300906272
 30
0.0
  0
VERTEX
  5
1C5
  8
LAYER_1
 10
235.359983256526
 20
537.6043992388138
 30
0.0
  0
VERTEX
  5
1C6
  8
LAYER_1
 10
235.8399246476759
 20
537.6410144857912
 30
0.0
  0
VERTEX
  5
1C7
  8
LAYER_1
 10
236.2702946275332
 20
537.6922758315595
 30
0.0
  0
VERTEX
  5
1C8
  8
LAYER_1
 10
236.6510931960981
 20
537.7581832761189
 30
0.0
  0
VERTEX
  5
1C9
  8
LAYER_1
 10
236.9823203533705
 20
537.8387368194691
 30
0.0
  0
VERTEX
  5
1CA
  8
LAYER_1
 10
237.2639760993505
 20
537.9339364616103
 30
0.0
  0
VERTEX
  5
1CB
  8
LAYER_1
 10
237.3862146931058
 20
537.9870285697275
 30
0.0
  0
VERTEX
  5
1CC
  8
LAYER_1
 10
237.496060434038
 20
538.0437822025425
 30
0.0
  0
VERTEX
  5
1CD
  8
LAYER_1
 10
237.6980076039056
 20
538.1705272882335
 30
0.0
  0
VERTEX
  5
1CE
  8
LAYER_1
 10
237.889251855426
 20
538.3164249646511
 30
0.0
  0
VERTEX
  5
1CF
  8
LAYER_1
 10
238.0697931885991
 20
538.4814752317955
 30
0.0
  0
VERTEX
  5
1D0
  8
LAYER_1
 10
238.239631603425
 20
538.6656780896662
 30
0.0
  0
VERTEX
  5
1D1
  8
LAYER_1
 10
238.3987670999037
 20
538.8690335382638
 30
0.0
  0
VERTEX
  5
1D2
  8
LAYER_1
 10
238.5471996780352
 20
539.0915415775879
 30
0.0
  0
VERTEX
  5
1D3
  8
LAYER_1
 10
238.6849293378193
 20
539.3332022076387
 30
0.0
  0
VERTEX
  5
1D4
  8
LAYER_1
 10
238.8119560792563
 20
539.5940154284161
 30
0.0
  0
VERTEX
  5
1D5
  8
LAYER_1
 10
238.8708925441026
 20
539.736955719501
 30
0.0
  0
VERTEX
  5
1D6
  8
LAYER_1
 10
238.9260266563782
 20
539.8953870766147
 30
0.0
  0
VERTEX
  5
1D7
  8
LAYER_1
 10
238.977358416083
 20
540.0693094997573
 30
0.0
  0
VERTEX
  5
1D8
  8
LAYER_1
 10
239.0248878232172
 20
540.2587229889289
 30
0.0
  0
VERTEX
  5
1D9
  8
LAYER_1
 10
239.1085395797732
 20
540.6840231653586
 30
0.0
  0
VERTEX
  5
1DA
  8
LAYER_1
 10
239.1769819260463
 20
541.1712876059039
 30
0.0
  0
VERTEX
  5
1DB
  8
LAYER_1
 10
239.2302148620365
 20
541.7205163105648
 30
0.0
  0
VERTEX
  5
1DC
  8
LAYER_1
 10
239.2682383877438
 20
542.3317092793413
 30
0.0
  0
VERTEX
  5
1DD
  8
LAYER_1
 10
239.2910525031682
 20
543.0048665122333
 30
0.0
  0
VERTEX
  5
1DE
  8
LAYER_1
 10
239.2986572083097
 20
543.739988009241
 30
0.0
  0
VERTEX
  5
1DF
  8
LAYER_1
 10
239.2986572083097
 20
556.466321235599
 30
0.0
  0
VERTEX
  5
1E0
  8
LAYER_1
 10
239.293587404882
 20
557.7501081257756
 30
0.0
  0
VERTEX
  5
1E1
  8
LAYER_1
 10
239.2783779945991
 20
558.9155996026407
 30
0.0
  0
VERTEX
  5
1E2
  8
LAYER_1
 10
239.2530289774609
 20
559.9627956661941
 30
0.0
  0
VERTEX
  5
1E3
  8
LAYER_1
 10
239.2175403534674
 20
560.8916963164361
 30
0.0
  0
VERTEX
  5
1E4
  8
LAYER_1
 10
239.1719121226187
 20
561.7023015533663
 30
0.0
  0
VERTEX
  5
1E5
  8
LAYER_1
 10
239.1161442849146
 20
562.394611376985
 30
0.0
  0
VERTEX
  5
1E6
  8
LAYER_1
 10
239.0502368403553
 20
562.9686257872921
 30
0.0
  0
VERTEX
  5
1E7
  8
LAYER_1
 10
238.9741897889407
 20
563.4243447842877
 30
0.0
  0
VERTEX
  5
1E8
  8
LAYER_1
 10
238.9065924099056
 20
563.7017756940779
 30
0.0
  0
VERTEX
  5
1E9
  8
LAYER_1
 10
238.829982046999
 20
563.9572374556817
 30
0.0
  0
VERTEX
  5
1EA
  8
LAYER_1
 10
238.7443587002211
 20
564.1907300690991
 30
0.0
  0
VERTEX
  5
1EB
  8
LAYER_1
 10
238.6497223695719
 20
564.4022535343299
 30
0.0
  0
VERTEX
  5
1EC
  8
LAYER_1
 10
238.5460730550512
 20
564.5918078513745
 30
0.0
  0
VERTEX
  5
1ED
  8
LAYER_1
 10
238.4334107566593
 20
564.7593930202324
 30
0.0
  0
VERTEX
  5
1EE
  8
LAYER_1
 10
238.3117354743959
 20
564.9050090409041
 30
0.0
  0
VERTEX
  5
1EF
  8
LAYER_1
 10
238.1810472082612
 20
565.0286559133893
 30
0.0
  0
VERTEX
  5
1F0
  8
LAYER_1
 10
238.0396560237793
 20
565.1342768181319
 30
0.0
  0
VERTEX
  5
1F1
  8
LAYER_1
 10
237.8858719864742
 20
565.2258149355754
 30
0.0
  0
VERTEX
  5
1F2
  8
LAYER_1
 10
237.7196950963461
 20
565.3032702657199
 30
0.0
  0
VERTEX
  5
1F3
  8
LAYER_1
 10
237.5411253533948
 20
565.3666428085654
 30
0.0
  0
VERTEX
  5
1F4
  8
LAYER_1
 10
237.3501627576204
 20
565.4159325641119
 30
0.0
  0
VERTEX
  5
1F5
  8
LAYER_1
 10
237.1468073090228
 20
565.4511395323594
 30
0.0
  0
VERTEX
  5
1F6
  8
LAYER_1
 10
236.9310590076022
 20
565.4722637133078
 30
0.0
  0
VERTEX
  5
1F7
  8
LAYER_1
 10
236.7029178533585
 20
565.4793051069573
 30
0.0
  0
VERTEX
  5
1F8
  8
LAYER_1
 10
236.4437945670569
 20
565.470855434578
 30
0.0
  0
VERTEX
  5
1F9
  8
LAYER_1
 10
236.1711518049484
 20
565.4455064174397
 30
0.0
  0
VERTEX
  5
1FA
  8
LAYER_1
 10
235.8849895670327
 20
565.4032580555427
 30
0.0
  0
VERTEX
  5
1FB
  8
LAYER_1
 10
235.58530785331
 20
565.3441103488869
 30
0.0
  0
VERTEX
  5
1FC
  8
LAYER_1
 10
235.2721066637803
 20
565.2680632974723
 30
0.0
  0
VERTEX
  5
1FD
  8
LAYER_1
 10
234.9453859984436
 20
565.1751169012989
 30
0.0
  0
VERTEX
  5
1FE
  8
LAYER_1
 10
234.6051458572998
 20
565.0652711603667
 30
0.0
  0
VERTEX
  5
1FF
  8
LAYER_1
 10
234.251386240349
 20
564.9385260746758
 30
0.0
  0
VERTEX
  5
200
  8
LAYER_1
 10
233.7466591435529
 20
566.2363957521515
 30
0.0
  0
VERTEX
  5
201
  8
LAYER_1
 10
243.6969933375325
 20
570.2742125265199
 30
0.0
  0
SEQEND
  5
A8D
  8
LAYER_1
  0
POLYLINE
  5
75
  8
LAYER_1
 66
     1
 10
0.0
 20
0.0
 30
0.0
 70
     1
  0
VERTEX
  5
202
  8
LAYER_1
 10
264.030284951317
 20
563.2801370423459
 30
0.0
  0
VERTEX
  5
203
  8
LAYER_1
 10
264.3925294476155
 20
563.710436608267
 30
0.0
  0
VERTEX
  5
204
  8
LAYER_1
 10
264.7537177348665
 20
564.1270758705077
 30
0.0
  0
VERTEX
  5
205
  8
LAYER_1
 10
265.1138498130701
 20
564.5300548290685
 30
0.0
  0
VERTEX
  5
206
  8
LAYER_1
 10
265.4729256822263
 20
564.9193734839492
 30
0.0
  0
VERTEX
  5
207
  8
LAYER_1
 10
265.830945342335
 20
565.29503183515
 30
0.0
  0
VERTEX
  5
208
  8
LAYER_1
 10
266.1879087933964
 20
565.6570298826707
 30
0.0
  0
VERTEX
  5
209
  8
LAYER_1
 10
266.5438160354103
 20
566.0053676265113
 30
0.0
  0
VERTEX
  5
20A
  8
LAYER_1
 10
266.8986670683768
 20
566.340045066672
 30
0.0
  0
VERTEX
  5
20B
  8
LAYER_1
 10
267.2524618922958
 20
566.6610622031527
 30
0.0
  0
VERTEX
  5
20C
  8
LAYER_1
 10
267.6052005071675
 20
566.9684190359533
 30
0.0
  0
VERTEX
  5
20D
  8
LAYER_1
 10
267.9568829129917
 20
567.2621155650738
 30
0.0
  0
VERTEX
  5
20E
  8
LAYER_1
 10
268.3075091097685
 20
567.5421517905145
 30
0.0
  0
VERTEX
  5
20F
  8
LAYER_1
 10
268.6570790974978
 20
567.8085277122751
 30
0.0
  0
VERTEX
  5
210
  8
LAYER_1
 10
269.0055928761798
 20
568.0612433303556
 30
0.0
  0
VERTEX
  5
211
  8
LAYER_1
 10
269.3530504458143
 20
568.3002986447561
 30
0.0
  0
VERTEX
  5
212
  8
LAYER_1
 10
269.6994518064014
 20
568.5256936554765
 30
0.0
  0
VERTEX
  5
213
  8
LAYER_1
 10
270.044796957941
 20
568.737428362517
 30
0.0
  0
VERTEX
  5
214
  8
LAYER_1
 10
270.3890859004332
 20
568.9355027658773
 30
0.0
  0
VERTEX
  5
215
  8
LAYER_1
 10
270.732318633878
 20
569.1199168655577
 30
0.0
  0
VERTEX
  5
216
  8
LAYER_1
 10
271.0744951582755
 20
569.290670661558
 30
0.0
  0
VERTEX
  5
217
  8
LAYER_1
 10
271.4156154736254
 20
569.4477641538783
 30
0.0
  0
VERTEX
  5
218
  8
LAYER_1
 10
271.7556795799279
 20
569.5911973425186
 30
0.0
  0
VERTEX
  5
219
  8
LAYER_1
 10
272.094687477183
 20
569.7209702274788
 30
0.0
  0
VERTEX
  5
21A
  8
LAYER_1
 10
272.4326391653908
 20
569.8370828087591
 30
0.0
  0
VERTEX
  5
21B
  8
LAYER_1
 10
272.7695346445511
 20
569.9395350863592
 30
0.0
  0
VERTEX
  5
21C
  8
LAYER_1
 10
273.1053739146639
 20
570.0283270602795
 30
0.0
  0
VERTEX
  5
21D
  8
LAYER_1
 10
273.4401569757293
 20
570.1034587305196
 30
0.0
  0
VERTEX
  5
21E
  8
LAYER_1
 10
273.7738838277473
 20
570.1649300970797
 30
0.0
  0
VERTEX
  5
21F
  8
LAYER_1
 10
274.1065544707179
 20
570.2127411599598
 30
0.0
  0
VERTEX
  5
220
  8
LAYER_1
 10
274.438168904641
 20
570.2468919191599
 30
0.0
  0
VERTEX
  5
221
  8
LAYER_1
 10
274.7687271295167
 20
570.26738237468
 30
0.0
  0
VERTEX
  5
222
  8
LAYER_1
 10
275.098229145345
 20
570.2742125265199
 30
0.0
  0
VERTEX
  5
223
  8
LAYER_1
 10
275.4332586551882
 20
570.2689314812828
 30
0.0
  0
VERTEX
  5
224
  8
LAYER_1
 10
275.7623733943658
 20
570.2530883455714
 30
0.0
  0
VERTEX
  5
225
  8
LAYER_1
 10
276.0855733628778
 20
570.2266831193858
 30
0.0
  0
VERTEX
  5
226
  8
LAYER_1
 10
276.4028585607242
 20
570.1897158027259
 30
0.0
  0
VERTEX
  5
227
  8
LAYER_1
 10
276.714228987905
 20
570.1421863955918
 30
0.0
  0
VERTEX
  5
228
  8
LAYER_1
 10
277.0196846444203
 20
570.0840948979834
 30
0.0
  0
VERTEX
  5
229
  8
LAYER_1
 10
277.3192255302699
 20
570.0154413099008
 30
0.0
  0
VERTEX
  5
22A
  8
LAYER_1
 10
277.612851645454
 20
569.936225631344
 30
0.0
  0
VERTEX
  5
22B
  8
LAYER_1
 10
277.9005629899726
 20
569.846447862313
 30
0.0
  0
VERTEX
  5
22C
  8
LAYER_1
 10
278.1823595638256
 20
569.7461080028075
 30
0.0
  0
VERTEX
  5
22D
  8
LAYER_1
 10
278.4582413670129
 20
569.6352060528279
 30
0.0
  0
VERTEX
  5
22E
  8
LAYER_1
 10
278.7282083995347
 20
569.5137420123741
 30
0.0
  0
VERTEX
  5
22F
  8
LAYER_1
 10
278.9922606613908
 20
569.3817158814461
 30
0.0
  0
VERTEX
  5
230
  8
LAYER_1
 10
279.2503981525815
 20
569.2391276600437
 30
0.0
  0
VERTEX
  5
231
  8
LAYER_1
 10
279.5026208731065
 20
569.085977348167
 30
0.0
  0
VERTEX
  5
232
  8
LAYER_1
 10
279.7489288229659
 20
568.9222649458162
 30
0.0
  0
VERTEX
  5
233
  8
LAYER_1
 10
279.9891811742868
 20
568.7464413463883
 30
0.0
  0
VERTEX
  5
234
  8
LAYER_1
 10
280.2232370991961
 20
568.5569574432802
 30
0.0
  0
VERTEX
  5
235
  8
LAYER_1
 10
280.4510965976939
 20
568.3538132364922
 30
0.0
  0
VERTEX
  5
236
  8
LAYER_1
 10
280.6727596697801
 20
568.1370087260241
 30
0.0
  0
VERTEX
  5
237
  8
LAYER_1
 10
280.8882263154547
 20
567.906543911876
 30
0.0
  0
VERTEX
  5
238
  8
LAYER_1
 10
281.0974965347179
 20
567.6624187940479
 30
0.0
  0
VERTEX
  5
239
  8
LAYER_1
 10
281.3005703275694
 20
567.4046333725398
 30
0.0
  0
VERTEX
  5
23A
  8
LAYER_1
 10
281.4974476940095
 20
567.1331876473516
 30
0.0
  0
VERTEX
  5
23B
  8
LAYER_1
 10
281.6881286340379
 20
566.8480816184834
 30
0.0
  0
VERTEX
  5
23C
  8
LAYER_1
 10
281.8726131476548
 20
566.5493152859351
 30
0.0
  0
VERTEX
  5
23D
  8
LAYER_1
 10
282.0509012348601
 20
566.2368886497068
 30
0.0
  0
VERTEX
  5
23E
  8
LAYER_1
 10
282.2229928956539
 20
565.9108017097985
 30
0.0
  0
VERTEX
  5
23F
  8
LAYER_1
 10
282.3888881300361
 20
565.5710544662103
 30
0.0
  0
VERTEX
  5
240
  8
LAYER_1
 10
282.5485869380067
 20
565.2176469189419
 30
0.0
  0
VERTEX
  5
241
  8
LAYER_1
 10
282.7020893195657
 20
564.8505790679935
 30
0.0
  0
VERTEX
  5
242
  8
LAYER_1
 10
282.8493952747132
 20
564.4698509133651
 30
0.0
  0
VERTEX
  5
243
  8
LAYER_1
 10
282.9454398840924
 20
564.190448413353
 30
0.0
  0
VERTEX
  5
244
  8
LAYER_1
 10
283.03528806706
 20
563.8930199455982
 30
0.0
  0
VERTEX
  5
245
  8
LAYER_1
 10
283.1189398236161
 20
563.5775655101006
 30
0.0
  0
VERTEX
  5
246
  8
LAYER_1
 10
283.1963951537605
 20
563.2440851068604
 30
0.0
  0
VERTEX
  5
247
  8
LAYER_1
 10
283.2676540574934
 20
562.8925787358774
 30
0.0
  0
VERTEX
  5
248
  8
LAYER_1
 10
283.3327165348148
 20
562.5230463971518
 30
0.0
  0
VERTEX
  5
249
  8
LAYER_1
 10
283.3915825857247
 20
562.1354880906833
 30
0.0
  0
VERTEX
  5
24A
  8
LAYER_1
 10
283.4442522102229
 20
561.7299038164722
 30
0.0
  0
VERTEX
  5
24B
  8
LAYER_1
 10
283.4907254083096
 20
561.3062935745183
 30
0.0
  0
VERTEX
  5
24C
  8
LAYER_1
 10
283.5310021799847
 20
560.8646573648218
 30
0.0
  0
VERTEX
  5
24D
  8
LAYER_1
 10
283.5929664441003
 20
559.9273070422006
 30
0.0
  0
VERTEX
  5
24E
  8
LAYER_1
 10
283.6301450025696
 20
558.9178528486085
 30
0.0
  0
VERTEX
  5
24F
  8
LAYER_1
 10
283.6425378553927
 20
557.8362947840454
 30
0.0
  0
VERTEX
  5
250
  8
LAYER_1
 10
283.6425378553927
 20
543.739988009241
 30
0.0
  0
VERTEX
  5
251
  8
LAYER_1
 10
283.6504242162802
 20
542.9874038559824
 30
0.0
  0
VERTEX
  5
252
  8
LAYER_1
 10
283.6740832989425
 20
542.2979105898235
 30
0.0
  0
VERTEX
  5
253
  8
LAYER_1
 10
283.7135151033797
 20
541.6715082107642
 30
0.0
  0
VERTEX
  5
254
  8
LAYER_1
 10
283.7687196295918
 20
541.1081967188043
 30
0.0
  0
VERTEX
  5
255
  8
LAYER_1
 10
283.8396968775787
 20
540.6079761139438
 30
0.0
  0
VERTEX
  5
256
  8
LAYER_1
 10
283.9264468473406
 20
540.1708463961829
 30
0.0
  0
VERTEX
  5
257
  8
LAYER_1
 10
283.9757366028871
 20
539.9759406199648
 30
0.0
  0
VERTEX
  5
258
  8
LAYER_1
 10
284.0289695388773
 20
539.7968075655217
 30
0.0
  0
VERTEX
  5
259
  8
LAYER_1
 10
284.0861456553112
 20
539.6334472328533
 30
0.0
  0
VERTEX
  5
25A
  8
LAYER_1
 10
284.1472649521888
 20
539.4858596219599
 30
0.0
  0
VERTEX
  5
25B
  8
LAYER_1
 10
284.2540124799152
 20
539.2667314515875
 30
0.0
  0
VERTEX
  5
25C
  8
LAYER_1
 10
284.3759694179246
 20
539.0599961340382
 30
0.0
  0
VERTEX
  5
25D
  8
LAYER_1
 10
284.5131357662168
 20
538.865653669312
 30
0.0
  0
VERTEX
  5
25E
  8
LAYER_1
 10
284.6655115247919
 20
538.6837040574089
 30
0.0
  0
VERTEX
  5
25F
  8
LAYER_1
 10
284.83309669365
 20
538.514147298329
 30
0.0
  0
VERTEX
  5
260
  8
LAYER_1
 10
285.015891272791
 20
538.3569833920723
 30
0.0
  0
VERTEX
  5
261
  8
LAYER_1
 10
285.2138952622149
 20
538.2122123386387
 30
0.0
  0
VERTEX
  5
262
  8
LAYER_1
 10
285.4271086619217
 20
538.079834138028
 30
0.0
  0
VERTEX
  5
263
  8
LAYER_1
 10
285.5433620710749
 20
538.0187148411503
 30
0.0
  0
VERTEX
  5
264
  8
LAYER_1
 10
285.6713041936863
 20
537.9615387247165
 30
0.0
  0
VERTEX
  5
265
  8
LAYER_1
 10
285.8109350297559
 20
537.9083057887262
 30
0.0
  0
VERTEX
  5
266
  8
LAYER_1
 10
285.9622545792836
 20
537.8590160331797
 30
0.0
  0
VERTEX
  5
267
  8
LAYER_1
 10
286.2999598187135
 20
537.7722660634179
 30
0.0
  0
VERTEX
  5
268
  8
LAYER_1
 10
286.6844199119762
 20
537.7012888154309
 30
0.0
  0
VERTEX
  5
269
  8
LAYER_1
 10
287.1156348590715
 20
537.6460842892188
 30
0.0
  0
VERTEX
  5
26A
  8
LAYER_1
 10
287.5936046599994
 20
537.6066524847815
 30
0.0
  0
VERTEX
  5
26B
  8
LAYER_1
 10
288.1183293147601
 20
537.5829934021193
 30
0.0
  0
VERTEX
  5
26C
  8
LAYER_1
 10
288.6898088233534
 20
537.5751070412318
 30
0.0
  0
VERTEX
  5
26D
  8
LAYER_1
 10
288.6898088233534
 20
536.2772373637563
 30
0.0
  0
VERTEX
  5
26E
  8
LAYER_1
 10
272.3582820484521
 20
536.2772373637563
 30
0.0
  0
VERTEX
  5
26F
  8
LAYER_1
 10
272.3582820484521
 20
537.5751070412318
 30
0.0
  0
VERTEX
  5
270
  8
LAYER_1
 10
273.0432688226753
 20
537.5751070412318
 30
0.0
  0
VERTEX
  5
271
  8
LAYER_1
 10
273.5984122980018
 20
537.586091615325
 30
0.0
  0
VERTEX
  5
272
  8
LAYER_1
 10
274.1101807884473
 20
537.6190453376048
 30
0.0
  0
VERTEX
  5
273
  8
LAYER_1
 10
274.5785742940121
 20
537.6739682080708
 30
0.0
  0
VERTEX
  5
274
  8
LAYER_1
 10
275.0035928146958
 20
537.7508602267233
 30
0.0
  0
VERTEX
  5
275
  8
LAYER_1
 10
275.1998364557073
 20
537.7975446666195
 30
0.0
  0
VERTEX
  5
276
  8
LAYER_1
 10
275.3852363504986
 20
537.8497213935623
 30
0.0
  0
VERTEX
  5
277
  8
LAYER_1
 10
275.5597924990697
 20
537.9073904075517
 30
0.0
  0
VERTEX
  5
278
  8
LAYER_1
 10
275.7235049014205
 20
537.9705517085877
 30
0.0
  0
VERTEX
  5
279
  8
LAYER_1
 10
275.8763735575511
 20
538.0392052966703
 30
0.0
  0
VERTEX
  5
27A
  8
LAYER_1
 10
276.0183984674615
 20
538.1133511717994
 30
0.0
  0
VERTEX
  5
27B
  8
LAYER_1
 10
276.1495796311517
 20
538.1929893339753
 30
0.0
  0
VERTEX
  5
27C
  8
LAYER_1
 10
276.2699170486216
 20
538.2781197831978
 30
0.0
  0
VERTEX
  5
27D
  8
LAYER_1
 10
276.4910168092159
 20
538.4642942312905
 30
0.0
  0
VERTEX
  5
27E
  8
LAYER_1
 10
276.6946539135594
 20
538.6713112045858
 30
0.0
  0
VERTEX
  5
27F
  8
LAYER_1
 10
276.8808283616522
 20
538.8991707030835
 30
0.0
  0
VERTEX
  5
280
  8
LAYER_1
 10
277.0495401534941
 20
539.1478727267839
 30
0.0
  0
VERTEX
  5
281
  8
LAYER_1
 10
277.2007892890854
 20
539.4174172756868
 30
0.0
  0
VERTEX
  5
282
  8
LAYER_1
 10
277.3345757684258
 20
539.707804349792
 30
0.0
  0
VERTEX
  5
283
  8
LAYER_1
 10
277.4508995915156
 20
540.0190339490999
 30
0.0
  0
VERTEX
  5
284
  8
LAYER_1
 10
277.5497607583545
 20
540.3511060736103
 30
0.0
  0
VERTEX
  5
285
  8
LAYER_1
 10
277.5835594478721
 20
540.522352767166
 30
0.0
  0
VERTEX
  5
286
  8
LAYER_1
 10
277.612851645454
 20
540.7657033316927
 30
0.0
  0
VERTEX
  5
287
  8
LAYER_1
 10
277.6376373511002
 20
541.0811577671902
 30
0.0
  0
VERTEX
  5
288
  8
LAYER_1
 10
277.6579165648108
 20
541.4687160736587
 30
0.0
  0
VERTEX
  5
289
  8
LAYER_1
 10
277.6849555164249
 20
542.4601442995081
 30
0.0
  0
VERTEX
  5
28A
  8
LAYER_1
 10
277.6939685002963
 20
543.739988009241
 30
0.0
  0
VERTEX
  5
28B
  8
LAYER_1
 10
277.6939685002963
 20
557.2594638162785
 30
0.0
  0
VERTEX
  5
28C
  8
LAYER_1
 10
277.6893915944241
 20
557.8131285989386
 30
0.0
  0
VERTEX
  5
28D
  8
LAYER_1
 10
277.6756608768075
 20
558.3474999629991
 30
0.0
  0
VERTEX
  5
28E
  8
LAYER_1
 10
277.6527763474467
 20
558.86257790846
 30
0.0
  0
VERTEX
  5
28F
  8
LAYER_1
 10
277.6207380063414
 20
559.358362435321
 30
0.0
  0
VERTEX
  5
290
  8
LAYER_1
 10
277.5795458534918
 20
559.8348535435828
 30
0.0
  0
VERTEX
  5
291
  8
LAYER_1
 10
277.5291998888979
 20
560.2920512332446
 30
0.0
  0
VERTEX
  5
292
  8
LAYER_1
 10
277.4697001125597
 20
560.7299555043069
 30
0.0
  0
VERTEX
  5
293
  8
LAYER_1
 10
277.4010465244771
 20
561.1485663567696
 30
0.0
  0
VERTEX
  5
294
  8
LAYER_1
 10
277.3232391246502
 20
561.5478837906328
 30
0.0
  0
VERTEX
  5
295
  8
LAYER_1
 10
277.2362779130788
 20
561.9279078058961
 30
0.0
  0
VERTEX
  5
296
  8
LAYER_1
 10
277.1401628897631
 20
562.28863840256
 30
0.0
  0
VERTEX
  5
297
  8
LAYER_1
 10
277.0348940547032
 20
562.6300755806242
 30
0.0
  0
VERTEX
  5
298
  8
LAYER_1
 10
276.9204714078988
 20
562.9522193400888
 30
0.0
  0
VERTEX
  5
299
  8
LAYER_1
 10
276.7968949493501
 20
563.2550696809537
 30
0.0
  0
VERTEX
  5
29A
  8
LAYER_1
 10
276.6641646790571
 20
563.5386266032191
 30
0.0
  0
VERTEX
  5
29B
  8
LAYER_1
 10
276.5222805970196
 20
563.8028901068847
 30
0.0
  0
VERTEX
  5
29C
  8
LAYER_1
 10
276.369552768762
 20
564.0495501264267
 30
0.0
  0
VERTEX
  5
29D
  8
LAYER_1
 10
276.2042912598082
 20
564.2802965963207
 30
0.0
  0
VERTEX
  5
29E
  8
LAYER_1
 10
276.0264960701584
 20
564.4951295165669
 30
0.0
  0
VERTEX
  5
29F
  8
LAYER_1
 10
275.8361671998125
 20
564.6940488871652
 30
0.0
  0
VERTEX
  5
2A0
  8
LAYER_1
 10
275.6333046487704
 20
564.8770547081157
 30
0.0
  0
VERTEX
  5
2A1
  8
LAYER_1
 10
275.4179084170322
 20
565.0441469794183
 30
0.0
  0
VERTEX
  5
2A2
  8
LAYER_1
 10
275.189978504598
 20
565.1953257010731
 30
0.0
  0
VERTEX
  5
2A3
  8
LAYER_1
 10
274.9495149114676
 20
565.3305908730799
 30
0.0
  0
VERTEX
  5
2A4
  8
LAYER_1
 10
274.6965176376411
 20
565.449942495439
 30
0.0
  0
VERTEX
  5
2A5
  8
LAYER_1
 10
274.4309866831185
 20
565.55338056815
 30
0.0
  0
VERTEX
  5
2A6
  8
LAYER_1
 10
274.1529220478998
 20
565.6409050912133
 30
0.0
  0
VERTEX
  5
2A7
  8
LAYER_1
 10
273.862323731985
 20
565.7125160646287
 30
0.0
  0
VERTEX
  5
2A8
  8
LAYER_1
 10
273.559191735374
 20
565.7682134883963
 30
0.0
  0
VERTEX
  5
2A9
  8
LAYER_1
 10
273.243526058067
 20
565.807997362516
 30
0.0
  0
VERTEX
  5
2AA
  8
LAYER_1
 10
272.9153267000639
 20
565.8318676869877
 30
0.0
  0
VERTEX
  5
2AB
  8
LAYER_1
 10
272.5745936613647
 20
565.8398244618116
 30
0.0
  0
VERTEX
  5
2AC
  8
LAYER_1
 10
272.30649259816
 20
565.8352475559395
 30
0.0
  0
VERTEX
  5
2AD
  8
LAYER_1
 10
272.0384619488918
 20
565.821516838323
 30
0.0
  0
VERTEX
  5
2AE
  8
LAYER_1
 10
271.7705017135602
 20
565.798632308962
 30
0.0
  0
VERTEX
  5
2AF
  8
LAYER_1
 10
271.502611892165
 20
565.7665939678568
 30
0.0
  0
VERTEX
  5
2B0
  8
LAYER_1
 10
271.2347924847063
 20
565.7254018150072
 30
0.0
  0
VERTEX
  5
2B1
  8
LAYER_1
 10
270.9670434911841
 20
565.6750558504134
 30
0.0
  0
VERTEX
  5
2B2
  8
LAYER_1
 10
270.6993649115984
 20
565.6155560740751
 30
0.0
  0
VERTEX
  5
2B3
  8
LAYER_1
 10
270.4317567459492
 20
565.5469024859925
 30
0.0
  0
VERTEX
  5
2B4
  8
LAYER_1
 10
270.1642189942365
 20
565.4690950861656
 30
0.0
  0
VERTEX
  5
2B5
  8
LAYER_1
 10
269.8967516564603
 20
565.3821338745943
 30
0.0
  0
VERTEX
  5
2B6
  8
LAYER_1
 10
269.6293547326206
 20
565.2860188512786
 30
0.0
  0
VERTEX
  5
2B7
  8
LAYER_1
 10
269.3620282227174
 20
565.1807500162186
 30
0.0
  0
VERTEX
  5
2B8
  8
LAYER_1
 10
269.0947721267506
 20
565.0663273694142
 30
0.0
  0
VERTEX
  5
2B9
  8
LAYER_1
 10
268.8275864447204
 20
564.9427509108655
 30
0.0
  0
VERTEX
  5
2BA
  8
LAYER_1
 10
268.5604711766267
 20
564.8100206405725
 30
0.0
  0
VERTEX
  5
2BB
  8
LAYER_1
 10
268.2934263224695
 20
564.668136558535
 30
0.0
  0
VERTEX
  5
2BC
  8
LAYER_1
 10
268.0264518822488
 20
564.5170986647532
 30
0.0
  0
VERTEX
  5
2BD
  8
LAYER_1
 10
267.7595478559645
 20
564.3569069592272
 30
0.0
  0
VERTEX
  5
2BE
  8
LAYER_1
 10
267.4927142436168
 20
564.1875614419567
 30
0.0
  0
VERTEX
  5
2BF
  8
LAYER_1
 10
267.2259510452055
 20
564.0090621129419
 30
0.0
  0
VERTEX
  5
2C0
  8
LAYER_1
 10
266.6926358901924
 20
563.6246020196793
 30
0.0
  0
VERTEX
  5
2C1
  8
LAYER_1
 10
266.1596023909254
 20
563.2035266794392
 30
0.0
  0
VERTEX
  5
2C2
  8
LAYER_1
 10
265.6268505474043
 20
562.7458360922219
 30
0.0
  0
VERTEX
  5
2C3
  8
LAYER_1
 10
265.0943803596293
 20
562.2515302580271
 30
0.0
  0
VERTEX
  5
2C4
  8
LAYER_1
 10
264.5621918276001
 20
561.7206091768549
 30
0.0
  0
VERTEX
  5
2C5
  8
LAYER_1
 10
264.030284951317
 20
561.1530728487053
 30
0.0
  0
VERTEX
  5
2C6
  8
LAYER_1
 10
264.030284951317
 20
543.739988009241
 30
0.0
  0
VERTEX
  5
2C7
  8
LAYER_1
 10
264.0364813777286
 20
542.9417756251338
 30
0.0
  0
VERTEX
  5
2C8
  8
LAYER_1
 10
264.0550706569633
 20
542.223553472885
 30
0.0
  0
VERTEX
  5
2C9
  8
LAYER_1
 10
264.0860527890211
 20
541.5853215524944
 30
0.0
  0
VERTEX
  5
2CA
  8
LAYER_1
 10
264.129427773902
 20
541.0270798639622
 30
0.0
  0
VERTEX
  5
2CB
  8
LAYER_1
 10
264.185195611606
 20
540.5488284072882
 30
0.0
  0
VERTEX
  5
2CC
  8
LAYER_1
 10
264.2533563021331
 20
540.1505671824725
 30
0.0
  0
VERTEX
  5
2CD
  8
LAYER_1
 10
264.2920839672053
 20
539.9814329070116
 30
0.0
  0
VERTEX
  5
2CE
  8
LAYER_1
 10
264.3339098454834
 20
539.8322961895152
 30
0.0
  0
VERTEX
  5
2CF
  8
LAYER_1
 10
264.3788339369672
 20
539.7031570299833
 30
0.0
  0
VERTEX
  5
2D0
  8
LAYER_1
 10
264.4268562416568
 20
539.5940154284161
 30
0.0
  0
VERTEX
  5
2D1
  8
LAYER_1
 10
264.5589527865213
 20
539.3413702242722
 30
0.0
  0
VERTEX
  5
2D2
  8
LAYER_1
 10
264.7028788727171
 20
539.1061876763789
 30
0.0
  0
VERTEX
  5
2D3
  8
LAYER_1
 10
264.858634500244
 20
538.8884677847365
 30
0.0
  0
VERTEX
  5
2D4
  8
LAYER_1
 10
265.0262196691021
 20
538.6882105493446
 30
0.0
  0
VERTEX
  5
2D5
  8
LAYER_1
 10
265.2056343792913
 20
538.5054159702037
 30
0.0
  0
VERTEX
  5
2D6
  8
LAYER_1
 10
265.3968786308117
 20
538.3400840473134
 30
0.0
  0
VERTEX
  5
2D7
  8
LAYER_1
 10
265.5999524236632
 20
538.192214780674
 30
0.0
  0
VERTEX
  5
2D8
  8
LAYER_1
 10
265.8148557578459
 20
538.0618081702852
 30
0.0
  0
VERTEX
  5
2D9
  8
LAYER_1
 10
265.9323766178561
 20
538.0028717054389
 30
0.0
  0
VERTEX
  5
2DA
  8
LAYER_1
 10
266.0641210930382
 20
537.9477375931633
 30
0.0
  0
VERTEX
  5
2DB
  8
LAYER_1
 10
266.2100891833923
 20
537.8964058334586
 30
0.0
  0
VERTEX
  5
2DC
  8
LAYER_1
 10
266.3702808889184
 20
537.8488764263245
 30
0.0
  0
VERTEX
  5
2DD
  8
LAYER_1
 10
266.7333351454865
 20
537.7652246697684
 30
0.0
  0
VERTEX
  5
2DE
  8
LAYER_1
 10
267.1532838627426
 20
537.6967823234952
 30
0.0
  0
VERTEX
  5
2DF
  8
LAYER_1
 10
267.6301270406867
 20
537.643549387505
 30
0.0
  0
VERTEX
  5
2E0
  8
LAYER_1
 10
268.1638646793187
 20
537.6055258617978
 30
0.0
  0
VERTEX
  5
2E1
  8
LAYER_1
 10
268.7544967786387
 20
537.5827117463733
 30
0.0
  0
VERTEX
  5
2E2
  8
LAYER_1
 10
269.4020233386466
 20
537.5751070412318
 30
0.0
  0
VERTEX
  5
2E3
  8
LAYER_1
 10
269.4020233386466
 20
536.2772373637563
 30
0.0
  0
VERTEX
  5
2E4
  8
LAYER_1
 10
253.0704965637453
 20
536.2772373637563
 30
0.0
  0
VERTEX
  5
2E5
  8
LAYER_1
 10
253.0704965637453
 20
537.5751070412318
 30
0.0
  0
VERTEX
  5
2E6
  8
LAYER_1
 10
253.7915352734539
 20
537.5751070412318
 30
0.0
  0
VERTEX
  5
2E7
  8
LAYER_1
 10
254.1005820407304
 20
537.5801064307229
 30
0.0
  0
VERTEX
  5
2E8
  8
LAYER_1
 10
254.3968134715648
 20
537.5951045991964
 30
0.0
  0
VERTEX
  5
2E9
  8
LAYER_1
 10
254.6802295659571
 20
537.6201015466521
 30
0.0
  0
VERTEX
  5
2EA
  8
LAYER_1
 10
254.9508303239074
 20
537.6550972730902
 30
0.0
  0
VERTEX
  5
2EB
  8
LAYER_1
 10
255.2086157454155
 20
537.7000917785105
 30
0.0
  0
VERTEX
  5
2EC
  8
LAYER_1
 10
255.4535858304816
 20
537.755085062913
 30
0.0
  0
VERTEX
  5
2ED
  8
LAYER_1
 10
255.6857405791056
 20
537.820077126298
 30
0.0
  0
VERTEX
  5
2EE
  8
LAYER_1
 10
255.9050799912875
 20
537.8950679686651
 30
0.0
  0
VERTEX
  5
2EF
  8
LAYER_1
 10
256.1116040670273
 20
537.9800575900144
 30
0.0
  0
VERTEX
  5
2F0
  8
LAYER_1
 10
256.305312806325
 20
538.0750459903462
 30
0.0
  0
VERTEX
  5
2F1
  8
LAYER_1
 10
256.4862062091806
 20
538.1800331696603
 30
0.0
  0
VERTEX
  5
2F2
  8
LAYER_1
 10
256.6542842755941
 20
538.2950191279567
 30
0.0
  0
VERTEX
  5
2F3
  8
LAYER_1
 10
256.8095470055656
 20
538.4200038652353
 30
0.0
  0
VERTEX
  5
2F4
  8
LAYER_1
 10
256.9519943990949
 20
538.5549873814962
 30
0.0
  0
VERTEX
  5
2F5
  8
LAYER_1
 10
257.0816264561822
 20
538.6999696767393
 30
0.0
  0
VERTEX
  5
2F6
  8
LAYER_1
 10
257.1984431768274
 20
538.8549507509648
 30
0.0
  0
VERTEX
  5
2F7
  8
LAYER_1
 10
257.3054019463632
 20
539.0240146124893
 30
0.0
  0
VERTEX
  5
2F8
  8
LAYER_1
 10
257.4054601501226
 20
539.2112452696294
 30
0.0
  0
VERTEX
  5
2F9
  8
LAYER_1
 10
257.4986177881054
 20
539.4166427223853
 30
0.0
  0
VERTEX
  5
2FA
  8
LAYER_1
 10
257.5848748603118
 20
539.6402069707569
 30
0.0
  0
VERTEX
  5
2FB
  8
LAYER_1
 10
257.6642313667417
 20
539.8819380147443
 30
0.0
  0
VERTEX
  5
2FC
  8
LAYER_1
 10
257.736687307395
 20
540.1418358543472
 30
0.0
  0
VERTEX
  5
2FD
  8
LAYER_1
 10
257.8022426822718
 20
540.4199004895659
 30
0.0
  0
VERTEX
  5
2FE
  8
LAYER_1
 10
257.8608974913722
 20
540.7161319204002
 30
0.0
  0
VERTEX
  5
2FF
  8
LAYER_1
 10
257.9126517346959
 20
541.0305301468503
 30
0.0
  0
VERTEX
  5
300
  8
LAYER_1
 10
257.9575054122432
 20
541.3630951689161
 30
0.0
  0
VERTEX
  5
301
  8
LAYER_1
 10
257.995458524014
 20
541.7138269865977
 30
0.0
  0
VERTEX
  5
302
  8
LAYER_1
 10
258.0265110700084
 20
542.082725599895
 30
0.0
  0
VERTEX
  5
303
  8
LAYER_1
 10
258.0506630502261
 20
542.4697910088079
 30
0.0
  0
VERTEX
  5
304
  8
LAYER_1
 10
258.0679144646675
 20
542.8750232133366
 30
0.0
  0
VERTEX
  5
305
  8
LAYER_1
 10
258.0817155962205
 20
543.739988009241
 30
0.0
  0
VERTEX
  5
306
  8
LAYER_1
 10
258.0817155962205
 20
555.9976460742884
 30
0.0
  0
VERTEX
  5
307
  8
LAYER_1
 10
258.0774907600308
 20
557.4121212305995
 30
0.0
  0
VERTEX
  5
308
  8
LAYER_1
 10
258.0648162514617
 20
558.6812620219853
 30
0.0
  0
VERTEX
  5
309
  8
LAYER_1
 10
258.0436920705132
 20
559.8050684484451
 30
0.0
  0
VERTEX
  5
30A
  8
LAYER_1
 10
258.0141182171853
 20
560.7835405099796
 30
0.0
  0
VERTEX
  5
30B
  8
LAYER_1
 10
257.976094691478
 20
561.6166782065883
 30
0.0
  0
VERTEX
  5
30C
  8
LAYER_1
 10
257.9296214933913
 20
562.3044815382714
 30
0.0
  0
VERTEX
  5
30D
  8
LAYER_1
 10
257.8746986229252
 20
562.8469505050286
 30
0.0
  0
VERTEX
  5
30E
  8
LAYER_1
 10
257.8440685605499
 20
563.0636846015602
 30
0.0
  0
VERTEX
  5
30F
  8
LAYER_1
 10
257.8113260800797
 20
563.2440851068604
 30
0.0
  0
VERTEX
  5
310
  8
LAYER_1
 10
257.7392222091088
 20
563.5555963619142
 30
0.0
  0
VERTEX
  5
311
  8
LAYER_1
 10
257.6581053542666
 20
563.8411952883379
 30
0.0
  0
VERTEX
  5
312
  8
LAYER_1
 10
257.567975515553
 20
564.1008818861314
 30
0.0
  0
VERTEX
  5
313
  8
LAYER_1
 10
257.4688326929681
 20
564.3346561552949
 30
0.0
  0
VERTEX
  5
314
  8
LAYER_1
 10
257.3606768865118
 20
564.5425180958281
 30
0.0
  0
VERTEX
  5
315
  8
LAYER_1
 10
257.2435080961842
 20
564.724467707731
 30
0.0
  0
VERTEX
  5
316
  8
LAYER_1
 10
257.1173263219852
 20
564.8805049910039
 30
0.0
  0
VERTEX
  5
317
  8
LAYER_1
 10
256.9821315639148
 20
565.0106299456467
 30
0.0
  0
VERTEX
  5
318
  8
LAYER_1
 10
256.8365155432431
 20
565.1204756865789
 30
0.0
  0
VERTEX
  5
319
  8
LAYER_1
 10
256.6790699812403
 20
565.2156753287201
 30
0.0
  0
VERTEX
  5
31A
  8
LAYER_1
 10
256.5097948779064
 20
565.2962288720704
 30
0.0
  0
VERTEX
  5
31B
  8
LAYER_1
 10
256.3286902332413
 20
565.3621363166297
 30
0.0
  0
VERTEX
  5
31C
  8
LAYER_1
 10
256.1357560472451
 20
565.4133976623982
 30
0.0
  0
VERTEX
  5
31D
  8
LAYER_1
 10
255.9309923199176
 20
565.4500129093755
 30
0.0
  0
VERTEX
  5
31E
  8
LAYER_1
 10
255.714399051259
 20
565.471982057562
 30
0.0
  0
VERTEX
  5
31F
  8
LAYER_1
 10
255.4859762412693
 20
565.4793051069573
 30
0.0
  0
VERTEX
  5
320
  8
LAYER_1
 10
255.2274162664597
 20
565.470855434578
 30
0.0
  0
VERTEX
  5
321
  8
LAYER_1
 10
254.956463438827
 20
565.4455064174397
 30
0.0
  0
VERTEX
  5
322
  8
LAYER_1
 10
254.6731177583711
 20
565.4032580555427
 30
0.0
  0
VERTEX
  5
323
  8
LAYER_1
 10
254.3773792250922
 20
565.3441103488869
 30
0.0
  0
VERTEX
  5
324
  8
LAYER_1
 10
254.0692478389902
 20
565.2680632974723
 30
0.0
  0
VERTEX
  5
325
  8
LAYER_1
 10
253.748723600065
 20
565.1751169012989
 30
0.0
  0
VERTEX
  5
326
  8
LAYER_1
 10
253.4158065083167
 20
565.0652711603667
 30
0.0
  0
VERTEX
  5
327
  8
LAYER_1
 10
253.0704965637453
 20
564.9385260746758
 30
0.0
  0
VERTEX
  5
328
  8
LAYER_1
 10
252.5297175314637
 20
566.2363957521515
 30
0.0
  0
VERTEX
  5
329
  8
LAYER_1
 10
262.4800517254433
 20
570.2742125265199
 30
0.0
  0
VERTEX
  5
32A
  8
LAYER_1
 10
264.030284951317
 20
570.2742125265199
 30
0.0
  0
SEQEND
  5
A8E
  8
LAYER_1
  0
POLYLINE
  5
76
  8
LAYER_1
 66
     1
 10
0.0
 20
0.0
 30
0.0
 70
     1
  0
VERTEX
  5
32B
  8
LAYER_1
 10
289.4468994685475
 20
569.3008102684132
 30
0.0
  0
VERTEX
  5
32C
  8
LAYER_1
 10
304.8410759208275
 20
569.3008102684132
 30
0.0
  0
VERTEX
  5
32D
  8
LAYER_1
 10
304.8410759208275
 20
567.9668886554522
 30
0.0
  0
VERTEX
  5
32E
  8
LAYER_1
 10
304.0839852756334
 20
567.9668886554522
 30
0.0
  0
VERTEX
  5
32F
  8
LAYER_1
 10
303.6910755099913
 20
567.955904081359
 30
0.0
  0
VERTEX
  5
330
  8
LAYER_1
 10
303.3235147614876
 20
567.9229503590793
 30
0.0
  0
VERTEX
  5
331
  8
LAYER_1
 10
302.9813030301219
 20
567.8680274886133
 30
0.0
  0
VERTEX
  5
332
  8
LAYER_1
 10
302.6644403158945
 20
567.7911354699606
 30
0.0
  0
VERTEX
  5
333
  8
LAYER_1
 10
302.3729266188052
 20
567.6922743031218
 30
0.0
  0
VERTEX
  5
334
  8
LAYER_1
 10
302.2366756516874
 20
567.6346052891323
 30
0.0
  0
VERTEX
  5
335
  8
LAYER_1
 10
302.1067619388542
 20
567.5714439880962
 30
0.0
  0
VERTEX
  5
336
  8
LAYER_1
 10
301.9831854803055
 20
567.5027904000136
 30
0.0
  0
VERTEX
  5
337
  8
LAYER_1
 10
301.8659462760413
 20
567.4286445248845
 30
0.0
  0
VERTEX
  5
338
  8
LAYER_1
 10
301.7550443260617
 20
567.3490063627087
 30
0.0
  0
VERTEX
  5
339
  8
LAYER_1
 10
301.6504796303666
 20
567.2638759134862
 30
0.0
  0
VERTEX
  5
33A
  8
LAYER_1
 10
301.4603620018302
 20
567.0827712688211
 30
0.0
  0
VERTEX
  5
33B
  8
LAYER_1
 10
301.295593390432
 20
566.8909637058088
 30
0.0
  0
VERTEX
  5
33C
  8
LAYER_1
 10
301.1561737961719
 20
566.6884532244492
 30
0.0
  0
VERTEX
  5
33D
  8
LAYER_1
 10
301.04210321905
 20
566.4752398247424
 30
0.0
  0
VERTEX
  5
33E
  8
LAYER_1
 10
300.9533816590663
 20
566.2513235066883
 30
0.0
  0
VERTEX
  5
33F
  8
LAYER_1
 10
300.8900091162208
 20
566.0167042702869
 30
0.0
  0
VERTEX
  5
340
  8
LAYER_1
 10
300.8519855905135
 20
565.7713821155385
 30
0.0
  0
VERTEX
  5
341
  8
LAYER_1
 10
300.8393110819444
 20
565.5153570424427
 30
0.0
  0
VERTEX
  5
342
  8
LAYER_1
 10
300.8439584017531
 20
565.3353790207614
 30
0.0
  0
VERTEX
  5
343
  8
LAYER_1
 10
300.8579003611791
 20
565.1469513267009
 30
0.0
  0
VERTEX
  5
344
  8
LAYER_1
 10
300.8811369602224
 20
564.950073960261
 30
0.0
  0
VERTEX
  5
345
  8
LAYER_1
 10
300.9136681988831
 20
564.7447469214417
 30
0.0
  0
VERTEX
  5
346
  8
LAYER_1
 10
301.0066145950565
 20
564.3087438266647
 30
0.0
  0
VERTEX
  5
347
  8
LAYER_1
 10
301.1367395496992
 20
563.8389420423701
 30
0.0
  0
VERTEX
  5
348
  8
LAYER_1
 10
301.3040430628113
 20
563.3353415685579
 30
0.0
  0
VERTEX
  5
349
  8
LAYER_1
 10
301.5085251343927
 20
562.7979424052282
 30
0.0
  0
VERTEX
  5
34A
  8
LAYER_1
 10
301.7501857644435
 20
562.2267445523808
 30
0.0
  0
VERTEX
  5
34B
  8
LAYER_1
 10
302.0290249529637
 20
561.621748010016
 30
0.0
  0
VERTEX
  5
34C
  8
LAYER_1
 10
310.0686065662154
 20
544.9657538157458
 30
0.0
  0
VERTEX
  5
34D
  8
LAYER_1
 10
317.4592533407292
 20
563.2080331713751
 30
0.0
  0
VERTEX
  5
34E
  8
LAYER_1
 10
317.602897771179
 20
563.5770021986087
 30
0.0
  0
VERTEX
  5
34F
  8
LAYER_1
 10
317.7273896109022
 20
563.9448446028586
 30
0.0
  0
VERTEX
  5
350
  8
LAYER_1
 10
317.8327288598987
 20
564.3115603841244
 30
0.0
  0
VERTEX
  5
351
  8
LAYER_1
 10
317.9189155181685
 20
564.6771495424064
 30
0.0
  0
VERTEX
  5
352
  8
LAYER_1
 10
317.9859495857118
 20
565.0416120777045
 30
0.0
  0
VERTEX
  5
353
  8
LAYER_1
 10
318.0338310625283
 20
565.4049479900186
 30
0.0
  0
VERTEX
  5
354
  8
LAYER_1
 10
318.0625599486182
 20
565.7671572793488
 30
0.0
  0
VERTEX
  5
355
  8
LAYER_1
 10
318.0721362439816
 20
566.1282399456951
 30
0.0
  0
VERTEX
  5
356
  8
LAYER_1
 10
318.0681930635378
 20
566.2854038519519
 30
0.0
  0
VERTEX
  5
357
  8
LAYER_1
 10
318.0563635222067
 20
566.4324281513534
 30
0.0
  0
VERTEX
  5
358
  8
LAYER_1
 10
318.0366476199881
 20
566.5693128438998
 30
0.0
  0
VERTEX
  5
359
  8
LAYER_1
 10
318.009045356882
 20
566.6960579295908
 30
0.0
  0
VERTEX
  5
35A
  8
LAYER_1
 10
317.9735567328885
 20
566.8126634084265
 30
0.0
  0
VERTEX
  5
35B
  8
LAYER_1
 10
317.9301817480077
 20
566.9191292804069
 30
0.0
  0
VERTEX
  5
35C
  8
LAYER_1
 10
317.8789204022393
 20
567.015455545532
 30
0.0
  0
VERTEX
  5
35D
  8
LAYER_1
 10
317.8197726955835
 20
567.1016422038018
 30
0.0
  0
VERTEX
  5
35E
  8
LAYER_1
 10
317.742599021185
 20
567.1982501246729
 30
0.0
  0
VERTEX
  5
35F
  8
LAYER_1
 10
317.6552857399313
 20
567.2897882421164
 30
0.0
  0
VERTEX
  5
360
  8
LAYER_1
 10
317.5578328518222
 20
567.3762565561321
 30
0.0
  0
VERTEX
  5
361
  8
LAYER_1
 10
317.4502403568579
 20
567.4576550667205
 30
0.0
  0
VERTEX
  5
362
  8
LAYER_1
 10
317.3325082550383
 20
567.5339837738811
 30
0.0
  0
VERTEX
  5
363
  8
LAYER_1
 10
317.2046365463633
 20
567.6052426776141
 30
0.0
  0
VERTEX
  5
364
  8
LAYER_1
 10
317.0666252308332
 20
567.6714317779192
 30
0.0
  0
VERTEX
  5
365
  8
LAYER_1
 10
316.9184743084477
 20
567.7325510747969
 30
0.0
  0
VERTEX
  5
366
  8
LAYER_1
 10
316.7506074838436
 20
567.787473945263
 30
0.0
  0
VERTEX
  5
367
  8
LAYER_1
 10
316.5534484616577
 20
567.8350737663336
 30
0.0
  0
VERTEX
  5
368
  8
LAYER_1
 10
316.3269972418898
 20
567.8753505380087
 30
0.0
  0
VERTEX
  5
369
  8
LAYER_1
 10
316.07125382454
 20
567.9083042602883
 30
0.0
  0
VERTEX
  5
36A
  8
LAYER_1
 10
315.7862182096083
 20
567.9339349331725
 30
0.0
  0
VERTEX
  5
36B
  8
LAYER_1
 10
315.4718903970947
 20
567.9522425566612
 30
0.0
  0
VERTEX
  5
36C
  8
LAYER_1
 10
315.1282703869991
 20
567.9632271307544
 30
0.0
  0
VERTEX
  5
36D
  8
LAYER_1
 10
314.7553581793217
 20
567.9668886554522
 30
0.0
  0
VERTEX
  5
36E
  8
LAYER_1
 10
314.7553581793217
 20
569.3008102684132
 30
0.0
  0
VERTEX
  5
36F
  8
LAYER_1
 10
325.4988349539808
 20
569.3008102684132
 30
0.0
  0
VERTEX
  5
370
  8
LAYER_1
 10
325.4988349539808
 20
567.9668886554522
 30
0.0
  0
VERTEX
  5
371
  8
LAYER_1
 10
325.1749308461038
 20
567.926330228031
 30
0.0
  0
VERTEX
  5
372
  8
LAYER_1
 10
324.8701793289536
 20
567.8767588167386
 30
0.0
  0
VERTEX
  5
373
  8
LAYER_1
 10
324.5845804025299
 20
567.8181744215747
 30
0.0
  0
VERTEX
  5
374
  8
LAYER_1
 10
324.318134066833
 20
567.7505770425396
 30
0.0
  0
VERTEX
  5
375
  8
LAYER_1
 10
324.0708403218625
 20
567.6739666796329
 30
0.0
  0
VERTEX
  5
376
  8
LAYER_1
 10
323.8426991676188
 20
567.5883433328552
 30
0.0
  0
VERTEX
  5
377
  8
LAYER_1
 10
323.6337106041016
 20
567.4937070022058
 30
0.0
  0
VERTEX
  5
378
  8
LAYER_1
 10
323.4438746313111
 20
567.3900576876853
 30
0.0
  0
VERTEX
  5
379
  8
LAYER_1
 10
323.2613617079161
 20
567.2700723398979
 30
0.0
  0
VERTEX
  5
37A
  8
LAYER_1
 10
323.0743422925855
 20
567.126427909448
 30
0.0
  0
VERTEX
  5
37B
  8
LAYER_1
 10
322.8828163853191
 20
566.9591243963359
 30
0.0
  0
VERTEX
  5
37C
  8
LAYER_1
 10
322.686783986117
 20
566.7681618005615
 30
0.0
  0
VERTEX
  5
37D
  8
LAYER_1
 10
322.4862450949793
 20
566.5535401221248
 30
0.0
  0
VERTEX
  5
37E
  8
LAYER_1
 10
322.2811997119059
 20
566.3152593610257
 30
0.0
  0
VERTEX
  5
37F
  8
LAYER_1
 10
322.0716478368968
 20
566.0533195172645
 30
0.0
  0
VERTEX
  5
380
  8
LAYER_1
 10
321.8575894699521
 20
565.7677205908408
 30
0.0
  0
VERTEX
  5
381
  8
LAYER_1
 10
321.7674596312385
 20
565.6139365535357
 30
0.0
  0
VERTEX
  5
382
  8
LAYER_1
 10
321.6593038247822
 20
565.4049479900186
 30
0.0
  0
VERTEX
  5
383
  8
LAYER_1
 10
321.3889143086414
 20
564.8213572843481
 30
0.0
  0
VERTEX
  5
384
  8
LAYER_1
 10
321.0464209215298
 20
564.0169484738294
 30
0.0
  0
VERTEX
  5
385
  8
LAYER_1
 10
320.6318236634473
 20
562.9917215584624
 30
0.0
  0
VERTEX
  5
386
  8
LAYER_1
 10
307.1844517273807
 20
530.0402525247763
 30
0.0
  0
VERTEX
  5
387
  8
LAYER_1
 10
306.9363834291088
 20
529.4500429090754
 30
0.0
  0
VERTEX
  5
388
  8
LAYER_1
 10
306.6788796633467
 20
528.8781409168631
 30
0.0
  0
VERTEX
  5
389
  8
LAYER_1
 10
306.4119404300942
 20
528.3245465481394
 30
0.0
  0
VERTEX
  5
38A
  8
LAYER_1
 10
306.1355657293514
 20
527.7892598029046
 30
0.0
  0
VERTEX
  5
38B
  8
LAYER_1
 10
305.8497555611182
 20
527.2722806811583
 30
0.0
  0
VERTEX
  5
38C
  8
LAYER_1
 10
305.5545099253947
 20
526.7736091829009
 30
0.0
  0
VERTEX
  5
38D
  8
LAYER_1
 10
305.2498288221809
 20
526.2932453081321
 30
0.0
  0
VERTEX
  5
38E
  8
LAYER_1
 10
304.9357122514767
 20
525.8311890568519
 30
0.0
  0
VERTEX
  5
38F
  8
LAYER_1
 10
304.6121602132823
 20
525.3874404290605
 30
0.0
  0
VERTEX
  5
390
  8
LAYER_1
 10
304.2791727075975
 20
524.9619994247579
 30
0.0
  0
VERTEX
  5
391
  8
LAYER_1
 10
303.9367497344223
 20
524.5548660439439
 30
0.0
  0
VERTEX
  5
392
  8
LAYER_1
 10
303.5848912937569
 20
524.1660402866186
 30
0.0
  0
VERTEX
  5
393
  8
LAYER_1
 10
303.2235973856011
 20
523.7955221527818
 30
0.0
  0
VERTEX
  5
394
  8
LAYER_1
 10
302.852868009955
 20
523.4433116424341
 30
0.0
  0
VERTEX
  5
395
  8
LAYER_1
 10
302.4727031668186
 20
523.1094087555748
 30
0.0
  0
VERTEX
  5
396
  8
LAYER_1
 10
302.0831028561918
 20
522.7938134922042
 30
0.0
  0
VERTEX
  5
397
  8
LAYER_1
 10
301.6897001929943
 20
522.4969483359414
 30
0.0
  0
VERTEX
  5
398
  8
LAYER_1
 10
301.2981282921457
 20
522.2192357704051
 30
0.0
  0
VERTEX
  5
399
  8
LAYER_1
 10
300.9083871536459
 20
521.9606757955955
 30
0.0
  0
VERTEX
  5
39A
  8
LAYER_1
 10
300.5204767774951
 20
521.7212684115125
 30
0.0
  0
VERTEX
  5
39B
  8
LAYER_1
 10
300.1343971636931
 20
521.5010136181563
 30
0.0
  0
VERTEX
  5
39C
  8
LAYER_1
 10
299.75014831224
 20
521.2999114155266
 30
0.0
  0
VERTEX
  5
39D
  8
LAYER_1
 10
299.3677302231357
 20
521.1179618036235
 30
0.0
  0
VERTEX
  5
39E
  8
LAYER_1
 10
298.9871428963802
 20
520.9551647824471
 30
0.0
  0
VERTEX
  5
39F
  8
LAYER_1
 10
298.6083863319737
 20
520.8115203519974
 30
0.0
  0
VERTEX
  5
3A0
  8
LAYER_1
 10
298.231460529916
 20
520.6870285122742
 30
0.0
  0
VERTEX
  5
3A1
  8
LAYER_1
 10
297.8563654902073
 20
520.5816892632778
 30
0.0
  0
VERTEX
  5
3A2
  8
LAYER_1
 10
297.4831012128473
 20
520.4955026050078
 30
0.0
  0
VERTEX
  5
3A3
  8
LAYER_1
 10
297.1116676978363
 20
520.4284685374646
 30
0.0
  0
VERTEX
  5
3A4
  8
LAYER_1
 10
296.7420649451741
 20
520.3805870606479
 30
0.0
  0
VERTEX
  5
3A5
  8
LAYER_1
 10
296.3742929548607
 20
520.3518581745581
 30
0.0
  0
VERTEX
  5
3A6
  8
LAYER_1
 10
296.0083517268963
 20
520.3422818791947
 30
0.0
  0
VERTEX
  5
3A7
  8
LAYER_1
 10
295.745426088024
 20
520.3470700268764
 30
0.0
  0
VERTEX
  5
3A8
  8
LAYER_1
 10
295.4884152198173
 20
520.3614344699214
 30
0.0
  0
VERTEX
  5
3A9
  8
LAYER_1
 10
295.2373191222762
 20
520.3853752083296
 30
0.0
  0
VERTEX
  5
3AA
  8
LAYER_1
 10
294.9921377954007
 20
520.4188922421013
 30
0.0
  0
VERTEX
  5
3AB
  8
LAYER_1
 10
294.7528712391907
 20
520.461985571236
 30
0.0
  0
VERTEX
  5
3AC
  8
LAYER_1
 10
294.5195194536463
 20
520.5146551957343
 30
0.0
  0
VERTEX
  5
3AD
  8
LAYER_1
 10
294.2920824387675
 20
520.5769011155959
 30
0.0
  0
VERTEX
  5
3AE
  8
LAYER_1
 10
294.0705601945543
 20
520.6487233308209
 30
0.0
  0
VERTEX
  5
3AF
  8
LAYER_1
 10
293.8549527210067
 20
520.7301218414091
 30
0.0
  0
VERTEX
  5
3B0
  8
LAYER_1
 10
293.6452600181246
 20
520.8210966473605
 30
0.0
  0
VERTEX
  5
3B1
  8
LAYER_1
 10
293.4414820859081
 20
520.9216477486752
 30
0.0
  0
VERTEX
  5
3B2
  8
LAYER_1
 10
293.2436189243572
 20
521.0317751453535
 30
0.0
  0
VERTEX
  5
3B3
  8
LAYER_1
 10
293.0516705334718
 20
521.1514788373951
 30
0.0
  0
VERTEX
  5
3B4
  8
LAYER_1
 10
292.865636913252
 20
521.2807588247999
 30
0.0
  0
VERTEX
  5
3B5
  8
LAYER_1
 10
292.6855180636979
 20
521.419615107568
 30
0.0
  0
VERTEX
  5
3B6
  8
LAYER_1
 10
292.5113139848093
 20
521.5680476856995
 30
0.0
  0
VERTEX
  5
3B7
  8
LAYER_1
 10
292.3454187504271
 20
521.7226766902425
 30
0.0
  0
VERTEX
  5
3B8
  8
LAYER_1
 10
292.1902264343922
 20
521.8801222522452
 30
0.0
  0
VERTEX
  5
3B9
  8
LAYER_1
 10
292.0457370367045
 20
522.0403843717079
 30
0.0
  0
VERTEX
  5
3BA
  8
LAYER_1
 10
291.911950557364
 20
522.2034630486302
 30
0.0
  0
VERTEX
  5
3BB
  8
LAYER_1
 10
291.7888669963708
 20
522.3693582830123
 30
0.0
  0
VERTEX
  5
3BC
  8
LAYER_1
 10
291.6764863537247
 20
522.5380700748543
 30
0.0
  0
VERTEX
  5
3BD
  8
LAYER_1
 10
291.574808629426
 20
522.7095984241562
 30
0.0
  0
VERTEX
  5
3BE
  8
LAYER_1
 10
291.4838338234745
 20
522.8839433309178
 30
0.0
  0
VERTEX
  5
3BF
  8
LAYER_1
 10
291.4035619358702
 20
523.0611047951392
 30
0.0
  0
VERTEX
  5
3C0
  8
LAYER_1
 10
291.3339929666131
 20
523.2410828168203
 30
0.0
  0
VERTEX
  5
3C1
  8
LAYER_1
 10
291.2751269157033
 20
523.4238773959613
 30
0.0
  0
VERTEX
  5
3C2
  8
LAYER_1
 10
291.2269637831407
 20
523.6094885325622
 30
0.0
  0
VERTEX
  5
3C3
  8
LAYER_1
 10
291.1895035689254
 20
523.7979162266228
 30
0.0
  0
VERTEX
  5
3C4
  8
LAYER_1
 10
291.1627462730573
 20
523.9891604781432
 30
0.0
  0
VERTEX
  5
3C5
  8
LAYER_1
 10
291.1466918955365
 20
524.1832212871234
 30
0.0
  0
VERTEX
  5
3C6
  8
LAYER_1
 10
291.1413404363628
 20
524.3800986535633
 30
0.0
  0
VERTEX
  5
3C7
  8
LAYER_1
 10
291.1452132028701
 20
524.5670476549574
 30
0.0
  0
VERTEX
  5
3C8
  8
LAYER_1
 10
291.1568315023918
 20
524.749349336543
 30
0.0
  0
VERTEX
  5
3C9
  8
LAYER_1
 10
291.1761953349279
 20
524.9270036983198
 30
0.0
  0
VERTEX
  5
3CA
  8
LAYER_1
 10
291.2033047004784
 20
525.1000107402881
 30
0.0
  0
VERTEX
  5
3CB
  8
LAYER_1
 10
291.2381595990435
 20
525.2683704624476
 30
0.0
  0
VERTEX
  5
3CC
  8
LAYER_1
 10
291.2807600306229
 20
525.4320828647985
 30
0.0
  0
VERTEX
  5
3CD
  8
LAYER_1
 10
291.3311059952168
 20
525.5911479473407
 30
0.0
  0
VERTEX
  5
3CE
  8
LAYER_1
 10
291.3891974928251
 20
525.7455657100741
 30
0.0
  0
VERTEX
  5
3CF
  8
LAYER_1
 10
291.4550345234479
 20
525.8953361529989
 30
0.0
  0
VERTEX
  5
3D0
  8
LAYER_1
 10
291.5286170870852
 20
526.040459276115
 30
0.0
  0
VERTEX
  5
3D1
  8
LAYER_1
 10
291.6099451837369
 20
526.1809350794225
 30
0.0
  0
VERTEX
  5
3D2
  8
LAYER_1
 10
291.6990188134031
 20
526.3167635629213
 30
0.0
  0
VERTEX
  5
3D3
  8
LAYER_1
 10
291.7958379760837
 20
526.4479447266115
 30
0.0
  0
VERTEX
  5
3D4
  8
LAYER_1
 10
291.9004026717787
 20
526.574478570493
 30
0.0
  0
VERTEX
  5
3D5
  8
LAYER_1
 10
292.0127129004883
 20
526.6963650945659
 30
0.0
  0
VERTEX
  5
3D6
  8
LAYER_1
 10
292.1327686622122
 20
526.81360429883
 30
0.0
  0
VERTEX
  5
3D7
  8
LAYER_1
 10
292.2595841618397
 20
526.9249287324286
 30
0.0
  0
VERTEX
  5
3D8
  8
LAYER_1
 10
292.3921736042598
 20
527.0290709445047
 30
0.0
  0
VERTEX
  5
3D9
  8
LAYER_1
 10
292.5305369894725
 20
527.1260309350582
 30
0.0
  0
VERTEX
  5
3DA
  8
LAYER_1
 10
292.6746743174778
 20
527.2158087040893
 30
0.0
  0
VERTEX
  5
3DB
  8
LAYER_1
 10
292.8245855882756
 20
527.298404251598
 30
0.0
  0
VERTEX
  5
3DC
  8
LAYER_1
 10
292.980270801866
 20
527.3738175775841
 30
0.0
  0
VERTEX
  5
3DD
  8
LAYER_1
 10
293.141729958249
 20
527.4420486820478
 30
0.0
  0
VERTEX
  5
3DE
  8
LAYER_1
 10
293.3089630574245
 20
527.5030975649889
 30
0.0
  0
VERTEX
  5
3DF
  8
LAYER_1
 10
293.4819700993927
 20
527.5569642264076
 30
0.0
  0
VERTEX
  5
3E0
  8
LAYER_1
 10
293.6607510841535
 20
527.6036486663038
 30
0.0
  0
VERTEX
  5
3E1
  8
LAYER_1
 10
293.8453060117068
 20
527.6431508846774
 30
0.0
  0
VERTEX
  5
3E2
  8
LAYER_1
 10
294.0356348820528
 20
527.6754708815286
 30
0.0
  0
VERTEX
  5
3E3
  8
LAYER_1
 10
294.2317376951913
 20
527.7006086568573
 30
0.0
  0
VERTEX
  5
3E4
  8
LAYER_1
 10
294.4336144511225
 20
527.7185642106635
 30
0.0
  0
VERTEX
  5
3E5
  8
LAYER_1
 10
294.8546897913625
 20
527.7329286537085
 30
0.0
  0
VERTEX
  5
3E6
  8
LAYER_1
 10
295.1656377349244
 20
527.7205358008854
 30
0.0
  0
VERTEX
  5
3E7
  8
LAYER_1
 10
295.5036246301003
 20
527.6833572424162
 30
0.0
  0
VERTEX
  5
3E8
  8
LAYER_1
 10
295.8686504768903
 20
527.6213929783005
 30
0.0
  0
VERTEX
  5
3E9
  8
LAYER_1
 10
296.2607152752944
 20
527.5346430085388
 30
0.0
  0
VERTEX
  5
3EA
  8
LAYER_1
 10
296.6798190253126
 20
527.4231073331307
 30
0.0
  0
VERTEX
  5
3EB
  8
LAYER_1
 10
297.1259617269448
 20
527.2867859520763
 30
0.0
  0
VERTEX
  5
3EC
  8
LAYER_1
 10
297.5991433801911
 20
527.1256788653757
 30
0.0
  0
VERTEX
  5
3ED
  8
LAYER_1
 10
298.0993639850515
 20
526.939786073029
 30
0.0
  0
VERTEX
  5
3EE
  8
LAYER_1
 10
298.752805315725
 20
526.7031952464059
 30
0.0
  0
VERTEX
  5
3EF
  8
LAYER_1
 10
299.2710518883281
 20
526.5342017988179
 30
0.0
  0
VERTEX
  5
3F0
  8
LAYER_1
 10
299.4794771403533
 20
526.475054092162
 30
0.0
  0
VERTEX
  5
3F1
  8
LAYER_1
 10
299.6541037028608
 20
526.432805730265
 30
0.0
  0
VERTEX
  5
3F2
  8
LAYER_1
 10
299.7949315758507
 20
526.4074567131269
 30
0.0
  0
VERTEX
  5
3F3
  8
LAYER_1
 10
299.9019607593231
 20
526.3990070407475
 30
0.0
  0
VERTEX
  5
3F4
  8
LAYER_1
 10
300.037930070695
 20
526.4033727048102
 30
0.0
  0
VERTEX
  5
3F5
  8
LAYER_1
 10
300.1754484886696
 20
526.4164696969983
 30
0.0
  0
VERTEX
  5
3F6
  8
LAYER_1
 10
300.3145160132473
 20
526.4382980173118
 30
0.0
  0
VERTEX
  5
3F7
  8
LAYER_1
 10
300.4551326444277
 20
526.4688576657505
 30
0.0
  0
VERTEX
  5
3F8
  8
LAYER_1
 10
300.5972983822112
 20
526.5081486423147
 30
0.0
  0
VERTEX
  5
3F9
  8
LAYER_1
 10
300.7410132265974
 20
526.5561709470043
 30
0.0
  0
VERTEX
  5
3FA
  8
LAYER_1
 10
301.0330902351786
 20
526.6784095407596
 30
0.0
  0
VERTEX
  5
3FB
  8
LAYER_1
 10
301.3313636701713
 20
526.8355734470165
 30
0.0
  0
VERTEX
  5
3FC
  8
LAYER_1
 10
301.6358335315757
 20
527.0276626657748
 30
0.0
  0
VERTEX
  5
3FD
  8
LAYER_1
 10
301.9464998193915
 20
527.2546771970347
 30
0.0
  0
VERTEX
  5
3FE
  8
LAYER_1
 10
302.263362533619
 20
527.516617040796
 30
0.0
  0
VERTEX
  5
3FF
  8
LAYER_1
 10
302.4234134112721
 20
527.6644863074354
 30
0.0
  0
VERTEX
  5
400
  8
LAYER_1
 10
302.5836051167983
 20
527.8286916073416
 30
0.0
  0
VERTEX
  5
401
  8
LAYER_1
 10
302.7439376501973
 20
528.0092329405147
 30
0.0
  0
VERTEX
  5
402
  8
LAYER_1
 10
302.9044110114694
 20
528.2061103069548
 30
0.0
  0
VERTEX
  5
403
  8
LAYER_1
 10
303.0650252006145
 20
528.4193237066615
 30
0.0
  0
VERTEX
  5
404
  8
LAYER_1
 10
303.2257802176325
 20
528.6488731396353
 30
0.0
  0
VERTEX
  5
405
  8
LAYER_1
 10
303.3866760625236
 20
528.8947586058758
 30
0.0
  0
VERTEX
  5
406
  8
LAYER_1
 10
303.5477127352876
 20
529.1569801053831
 30
0.0
  0
VERTEX
  5
407
  8
LAYER_1
 10
303.7088902359246
 20
529.4355376381573
 30
0.0
  0
VERTEX
  5
408
  8
LAYER_1
 10
303.8702085644347
 20
529.7304312041983
 30
0.0
  0
VERTEX
  5
409
  8
LAYER_1
 10
304.1932677050737
 20
530.3692264360809
 30
0.0
  0
VERTEX
  5
40A
  8
LAYER_1
 10
304.5168901572046
 20
531.0733658010308
 30
0.0
  0
VERTEX
  5
40B
  8
LAYER_1
 10
304.8410759208275
 20
531.842849299048
 30
0.0
  0
VERTEX
  5
40C
  8
LAYER_1
 10
307.1844517273807
 20
537.5751070412318
 30
0.0
  0
VERTEX
  5
40D
  8
LAYER_1
 10
295.3233649526731
 20
562.4869944616663
 30
0.0
  0
VERTEX
  5
40E
  8
LAYER_1
 10
295.1780305877475
 20
562.7748466340578
 30
0.0
  0
VERTEX
  5
40F
  8
LAYER_1
 10
295.0124170091112
 20
563.0795981512082
 30
0.0
  0
VERTEX
  5
410
  8
LAYER_1
 10
294.8265242167644
 20
563.4012490131173
 30
0.0
  0
VERTEX
  5
411
  8
LAYER_1
 10
294.6203522107071
 20
563.7397992197851
 30
0.0
  0
VERTEX
  5
412
  8
LAYER_1
 10
294.3939009909392
 20
564.0952487712118
 30
0.0
  0
VERTEX
  5
413
  8
LAYER_1
 10
294.1471705574609
 20
564.4675976673973
 30
0.0
  0
VERTEX
  5
414
  8
LAYER_1
 10
293.5928720493723
 20
565.2629934940447
 30
0.0
  0
VERTEX
  5
415
  8
LAYER_1
 10
293.162502069515
 20
565.8420777077795
 30
0.0
  0
VERTEX
  5
416
  8
LAYER_1
 10
292.9625264898692
 20
566.0927513217017
 30
0.0
  0
VERTEX
  5
417
  8
LAYER_1
 10
292.7726905170787
 20
566.3175126069937
 30
0.0
  0
VERTEX
  5
418
  8
LAYER_1
 10
292.5929941511435
 20
566.5163615636556
 30
0.0
  0
VERTEX
  5
419
  8
LAYER_1
 10
292.4234373920636
 20
566.6892981916872
 30
0.0
  0
VERTEX
  5
41A
  8
LAYER_1
 10
292.2640202398389
 20
566.8363224910887
 30
0.0
  0
VERTEX
  5
41B
  8
LAYER_1
 10
292.1147426944696
 20
566.9574344618601
 30
0.0
  0
VERTEX
  5
41C
  8
LAYER_1
 10
291.8916713436535
 20
567.099388957834
 30
0.0
  0
VERTEX
  5
41D
  8
LAYER_1
 10
291.6370545492876
 20
567.2368369618722
 30
0.0
  0
VERTEX
  5
41E
  8
LAYER_1
 10
291.350892311372
 20
567.3697784739747
 30
0.0
  0
VERTEX
  5
41F
  8
LAYER_1
 10
291.0331846299065
 20
567.4982134941415
 30
0.0
  0
VERTEX
  5
420
  8
LAYER_1
 10
290.6839315048913
 20
567.6221420223727
 30
0.0
  0
VERTEX
  5
421
  8
LAYER_1
 10
290.3031329363265
 20
567.7415640586682
 30
0.0
  0
VERTEX
  5
422
  8
LAYER_1
 10
289.8907889242118
 20
567.856479603028
 30
0.0
  0
VERTEX
  5
423
  8
LAYER_1
 10
289.4468994685475
 20
567.9668886554522
 30
0.0
  0
SEQEND
  5
A8F
  8
LAYER_1
  0
POLYLINE
  5
77
  8
LAYER_1
 66
     1
 10
0.0
 20
0.0
 30
0.0
 70
     1
  0
VERTEX
  5
424
  8
LAYER_1
 10
339.5951417287853
 20
587.5430896240425
 30
0.0
  0
VERTEX
  5
425
  8
LAYER_1
 10
339.5951417287853
 20
543.739988009241
 30
0.0
  0
VERTEX
  5
426
  8
LAYER_1
 10
339.6021831224348
 20
542.9975434628377
 30
0.0
  0
VERTEX
  5
427
  8
LAYER_1
 10
339.6233073033833
 20
542.320443049502
 30
0.0
  0
VERTEX
  5
428
  8
LAYER_1
 10
339.6585142716308
 20
541.7086867692335
 30
0.0
  0
VERTEX
  5
429
  8
LAYER_1
 10
339.7078040271773
 20
541.1622746220326
 30
0.0
  0
VERTEX
  5
42A
  8
LAYER_1
 10
339.7711765700228
 20
540.6812066078987
 30
0.0
  0
VERTEX
  5
42B
  8
LAYER_1
 10
339.8486319001673
 20
540.2654827268323
 30
0.0
  0
VERTEX
  5
42C
  8
LAYER_1
 10
339.8926406104766
 20
540.0821248361992
 30
0.0
  0
VERTEX
  5
42D
  8
LAYER_1
 10
339.9401700176107
 20
539.9151029788331
 30
0.0
  0
VERTEX
  5
42E
  8
LAYER_1
 10
339.9912201215696
 20
539.764417154734
 30
0.0
  0
VERTEX
  5
42F
  8
LAYER_1
 10
340.0457909223532
 20
539.6300673639016
 30
0.0
  0
VERTEX
  5
430
  8
LAYER_1
 10
340.1660579258867
 20
539.385308520645
 30
0.0
  0
VERTEX
  5
431
  8
LAYER_1
 10
340.301534339703
 20
539.1557590876714
 30
0.0
  0
VERTEX
  5
432
  8
LAYER_1
 10
340.4522201638023
 20
538.9414190649806
 30
0.0
  0
VERTEX
  5
433
  8
LAYER_1
 10
340.6181153981845
 20
538.7422884525727
 30
0.0
  0
VERTEX
  5
434
  8
LAYER_1
 10
340.7992200428496
 20
538.5583672504478
 30
0.0
  0
VERTEX
  5
435
  8
LAYER_1
 10
340.9955340977976
 20
538.3896554586058
 30
0.0
  0
VERTEX
  5
436
  8
LAYER_1
 10
341.2070575630286
 20
538.2361530770468
 30
0.0
  0
VERTEX
  5
437
  8
LAYER_1
 10
341.4337904385424
 20
538.0978601057707
 30
0.0
  0
VERTEX
  5
438
  8
LAYER_1
 10
341.5572964831547
 20
538.0345579768618
 30
0.0
  0
VERTEX
  5
439
  8
LAYER_1
 10
341.6934770363359
 20
537.9753398562693
 30
0.0
  0
VERTEX
  5
43A
  8
LAYER_1
 10
341.8423320980863
 20
537.9202057439938
 30
0.0
  0
VERTEX
  5
43B
  8
LAYER_1
 10
342.0038616684058
 20
537.8691556400349
 30
0.0
  0
VERTEX
  5
43C
  8
LAYER_1
 10
342.3649443347521
 20
537.7793074570673
 30
0.0
  0
VERTEX
  5
43D
  8
LAYER_1
 10
342.7767250353748
 20
537.7057953073665
 30
0.0
  0
VERTEX
  5
43E
  8
LAYER_1
 10
343.2392037702739
 20
537.6486191909327
 30
0.0
  0
VERTEX
  5
43F
  8
LAYER_1
 10
343.7523805394493
 20
537.6077791077655
 30
0.0
  0
VERTEX
  5
440
  8
LAYER_1
 10
344.3162553429012
 20
537.5832750578652
 30
0.0
  0
VERTEX
  5
441
  8
LAYER_1
 10
344.9308281806294
 20
537.5751070412318
 30
0.0
  0
VERTEX
  5
442
  8
LAYER_1
 10
344.9308281806294
 20
536.2772373637563
 30
0.0
  0
VERTEX
  5
443
  8
LAYER_1
 10
328.7435091476698
 20
536.2772373637563
 30
0.0
  0
VERTEX
  5
444
  8
LAYER_1
 10
328.7435091476698
 20
537.5751070412318
 30
0.0
  0
VERTEX
  5
445
  8
LAYER_1
 10
329.288794671887
 20
537.5824300906272
 30
0.0
  0
VERTEX
  5
446
  8
LAYER_1
 10
329.7890152767474
 20
537.6043992388138
 30
0.0
  0
VERTEX
  5
447
  8
LAYER_1
 10
330.244170962251
 20
537.6410144857912
 30
0.0
  0
VERTEX
  5
448
  8
LAYER_1
 10
330.6542617283978
 20
537.6922758315595
 30
0.0
  0
VERTEX
  5
449
  8
LAYER_1
 10
331.0192875751878
 20
537.7581832761189
 30
0.0
  0
VERTEX
  5
44A
  8
LAYER_1
 10
331.339248502621
 20
537.8387368194691
 30
0.0
  0
VERTEX
  5
44B
  8
LAYER_1
 10
331.6141445106975
 20
537.9339364616103
 30
0.0
  0
VERTEX
  5
44C
  8
LAYER_1
 10
331.7346931699769
 20
537.9870285697275
 30
0.0
  0
VERTEX
  5
44D
  8
LAYER_1
 10
331.8439755994171
 20
538.0437822025425
 30
0.0
  0
VERTEX
  5
44E
  8
LAYER_1
 10
332.0456411135388
 20
538.1705272882335
 30
0.0
  0
VERTEX
  5
44F
  8
LAYER_1
 10
332.2360403978213
 20
538.3164249646511
 30
0.0
  0
VERTEX
  5
450
  8
LAYER_1
 10
332.4151734522645
 20
538.4814752317955
 30
0.0
  0
VERTEX
  5
451
  8
LAYER_1
 10
332.5830402768685
 20
538.6656780896662
 30
0.0
  0
VERTEX
  5
452
  8
LAYER_1
 10
332.7396408716334
 20
538.8690335382638
 30
0.0
  0
VERTEX
  5
453
  8
LAYER_1
 10
332.8849752365591
 20
539.0915415775879
 30
0.0
  0
VERTEX
  5
454
  8
LAYER_1
 10
333.0190433716455
 20
539.3332022076387
 30
0.0
  0
VERTEX
  5
455
  8
LAYER_1
 10
333.1418452768927
 20
539.5940154284161
 30
0.0
  0
VERTEX
  5
456
  8
LAYER_1
 10
333.1985989097077
 20
539.736955719501
 30
0.0
  0
VERTEX
  5
457
  8
LAYER_1
 10
333.2516910178249
 20
539.8953870766147
 30
0.0
  0
VERTEX
  5
458
  8
LAYER_1
 10
333.3468906599661
 20
540.2587229889289
 30
0.0
  0
VERTEX
  5
459
  8
LAYER_1
 10
333.4274442033164
 20
540.6840231653586
 30
0.0
  0
VERTEX
  5
45A
  8
LAYER_1
 10
333.4933516478757
 20
541.1712876059039
 30
0.0
  0
VERTEX
  5
45B
  8
LAYER_1
 10
333.5446129936441
 20
541.7205163105648
 30
0.0
  0
VERTEX
  5
45C
  8
LAYER_1
 10
333.5812282406215
 20
542.3317092793413
 30
0.0
  0
VERTEX
  5
45D
  8
LAYER_1
 10
333.6031973888079
 20
543.0048665122333
 30
0.0
  0
VERTEX
  5
45E
  8
LAYER_1
 10
333.6105204382034
 20
543.739988009241
 30
0.0
  0
VERTEX
  5
45F
  8
LAYER_1
 10
333.6105204382034
 20
573.7351983331215
 30
0.0
  0
VERTEX
  5
460
  8
LAYER_1
 10
333.6065772577596
 20
575.0648951098929
 30
0.0
  0
VERTEX
  5
461
  8
LAYER_1
 10
333.5947477164285
 20
576.2599604400858
 30
0.0
  0
VERTEX
  5
462
  8
LAYER_1
 10
333.5750318142099
 20
577.3203943237004
 30
0.0
  0
VERTEX
  5
463
  8
LAYER_1
 10
333.5474295511038
 20
578.2461967607364
 30
0.0
  0
VERTEX
  5
464
  8
LAYER_1
 10
333.5119409271103
 20
579.0373677511941
 30
0.0
  0
VERTEX
  5
465
  8
LAYER_1
 10
333.4685659422295
 20
579.6939072950734
 30
0.0
  0
VERTEX
  5
466
  8
LAYER_1
 10
333.4173045964611
 20
580.2158153923741
 30
0.0
  0
VERTEX
  5
467
  8
LAYER_1
 10
333.3581568898053
 20
580.6030920430966
 30
0.0
  0
VERTEX
  5
468
  8
LAYER_1
 10
333.2902778550242
 20
580.9103784619607
 30
0.0
  0
VERTEX
  5
469
  8
LAYER_1
 10
333.2128225248797
 20
581.1923158636866
 30
0.0
  0
VERTEX
  5
46A
  8
LAYER_1
 10
333.1257908993719
 20
581.4489042482744
 30
0.0
  0
VERTEX
  5
46B
  8
LAYER_1
 10
333.0291829785008
 20
581.6801436157239
 30
0.0
  0
VERTEX
  5
46C
  8
LAYER_1
 10
332.9229987622663
 20
581.8860339660353
 30
0.0
  0
VERTEX
  5
46D
  8
LAYER_1
 10
332.8072382506685
 20
582.0665752992085
 30
0.0
  0
VERTEX
  5
46E
  8
LAYER_1
 10
332.6819014437075
 20
582.2217676152434
 30
0.0
  0
VERTEX
  5
46F
  8
LAYER_1
 10
332.5469883413831
 20
582.3516109141401
 30
0.0
  0
VERTEX
  5
470
  8
LAYER_1
 10
332.4024989436954
 20
582.4614566550722
 30
0.0
  0
VERTEX
  5
471
  8
LAYER_1
 10
332.2484332506443
 20
582.5566562972135
 30
0.0
  0
VERTEX
  5
472
  8
LAYER_1
 10
332.0847912622299
 20
582.6372098405637
 30
0.0
  0
VERTEX
  5
473
  8
LAYER_1
 10
331.9115729784523
 20
582.7031172851231
 30
0.0
  0
VERTEX
  5
474
  8
LAYER_1
 10
331.7287783993113
 20
582.7543786308916
 30
0.0
  0
VERTEX
  5
475
  8
LAYER_1
 10
331.536407524807
 20
582.7909938778689
 30
0.0
  0
VERTEX
  5
476
  8
LAYER_1
 10
331.3344603549394
 20
582.8129630260553
 30
0.0
  0
VERTEX
  5
477
  8
LAYER_1
 10
331.1229368897085
 20
582.8202860754508
 30
0.0
  0
VERTEX
  5
478
  8
LAYER_1
 10
330.8807129481657
 20
582.8112730915793
 30
0.0
  0
VERTEX
  5
479
  8
LAYER_1
 10
330.6227162848481
 20
582.7842341399653
 30
0.0
  0
VERTEX
  5
47A
  8
LAYER_1
 10
330.3489468997556
 20
582.7391692206086
 30
0.0
  0
VERTEX
  5
47B
  8
LAYER_1
 10
330.0594047928882
 20
582.676078333509
 30
0.0
  0
VERTEX
  5
47C
  8
LAYER_1
 10
329.754089964246
 20
582.5949614786668
 30
0.0
  0
VERTEX
  5
47D
  8
LAYER_1
 10
329.4330024138288
 20
582.495818656082
 30
0.0
  0
VERTEX
  5
47E
  8
LAYER_1
 10
329.0961421416367
 20
582.3786498657543
 30
0.0
  0
VERTEX
  5
47F
  8
LAYER_1
 10
328.7435091476698
 20
582.2434551076839
 30
0.0
  0
VERTEX
  5
480
  8
LAYER_1
 10
328.1306262444175
 20
583.505272849674
 30
0.0
  0
VERTEX
  5
481
  8
LAYER_1
 10
337.9728046319408
 20
587.5430896240425
 30
0.0
  0
SEQEND
  5
A90
  8
LAYER_1
  0
POLYLINE
  5
78
  8
LAYER_1
 66
     1
 10
0.0
 20
0.0
 30
0.0
 70
     1
  0
VERTEX
  5
482
  8
LAYER_1
 10
398.7563678603815
 20
586.2812718820524
 30
0.0
  0
VERTEX
  5
483
  8
LAYER_1
 10
398.7563678603815
 20
569.3729141393841
 30
0.0
  0
VERTEX
  5
484
  8
LAYER_1
 10
397.4224462474205
 20
569.3729141393841
 30
0.0
  0
VERTEX
  5
485
  8
LAYER_1
 10
397.337315798198
 20
569.9735450176863
 30
0.0
  0
VERTEX
  5
486
  8
LAYER_1
 10
397.2441581602151
 20
570.5586848299596
 30
0.0
  0
VERTEX
  5
487
  8
LAYER_1
 10
397.1429733334718
 20
571.128333576204
 30
0.0
  0
VERTEX
  5
488
  8
LAYER_1
 10
397.0337613179681
 20
571.6824912564196
 30
0.0
  0
VERTEX
  5
489
  8
LAYER_1
 10
396.916522113704
 20
572.2211578706062
 30
0.0
  0
VERTEX
  5
48A
  8
LAYER_1
 10
396.7912557206794
 20
572.7443334187641
 30
0.0
  0
VERTEX
  5
48B
  8
LAYER_1
 10
396.6579621388944
 20
573.252017900893
 30
0.0
  0
VERTEX
  5
48C
  8
LAYER_1
 10
396.516641368349
 20
573.744211316993
 30
0.0
  0
VERTEX
  5
48D
  8
LAYER_1
 10
396.3672934090431
 20
574.220913667064
 30
0.0
  0
VERTEX
  5
48E
  8
LAYER_1
 10
396.2099182609768
 20
574.6821249511062
 30
0.0
  0
VERTEX
  5
48F
  8
LAYER_1
 10
396.0445159241501
 20
575.1278451691194
 30
0.0
  0
VERTEX
  5
490
  8
LAYER_1
 10
395.8710863985629
 20
575.5580743211037
 30
0.0
  0
VERTEX
  5
491
  8
LAYER_1
 10
395.6896296842153
 20
575.9728124070592
 30
0.0
  0
VERTEX
  5
492
  8
LAYER_1
 10
395.5001457811073
 20
576.3720594269859
 30
0.0
  0
VERTEX
  5
493
  8
LAYER_1
 10
395.3026346892389
 20
576.7558153808835
 30
0.0
  0
VERTEX
  5
494
  8
LAYER_1
 10
395.09709640861
 20
577.1240802687523
 30
0.0
  0
VERTEX
  5
495
  8
LAYER_1
 10
394.8819818326178
 20
577.4799523037981
 30
0.0
  0
VERTEX
  5
496
  8
LAYER_1
 10
394.6557418546594
 20
577.8265296992263
 30
0.0
  0
VERTEX
  5
497
  8
LAYER_1
 10
394.4183764747348
 20
578.1638124550373
 30
0.0
  0
VERTEX
  5
498
  8
LAYER_1
 10
394.169885692844
 20
578.4918005712309
 30
0.0
  0
VERTEX
  5
499
  8
LAYER_1
 10
393.910269508987
 20
578.8104940478072
 30
0.0
  0
VERTEX
  5
49A
  8
LAYER_1
 10
393.6395279231638
 20
579.1198928847662
 30
0.0
  0
VERTEX
  5
49B
  8
LAYER_1
 10
393.3576609353744
 20
579.4199970821079
 30
0.0
  0
VERTEX
  5
49C
  8
LAYER_1
 10
393.0646685456187
 20
579.7108066398322
 30
0.0
  0
VERTEX
  5
49D
  8
LAYER_1
 10
392.7605507538968
 20
579.9923215579392
 30
0.0
  0
VERTEX
  5
49E
  8
LAYER_1
 10
392.4453075602088
 20
580.2645418364287
 30
0.0
  0
VERTEX
  5
49F
  8
LAYER_1
 10
392.1189389645546
 20
580.5274674753011
 30
0.0
  0
VERTEX
  5
4A0
  8
LAYER_1
 10
391.7814449669341
 20
580.781098474556
 30
0.0
  0
VERTEX
  5
4A1
  8
LAYER_1
 10
391.4328255673474
 20
581.0254348341936
 30
0.0
  0
VERTEX
  5
4A2
  8
LAYER_1
 10
391.0730807657945
 20
581.2604765542138
 30
0.0
  0
VERTEX
  5
4A3
  8
LAYER_1
 10
390.7022105622755
 20
581.4862236346169
 30
0.0
  0
VERTEX
  5
4A4
  8
LAYER_1
 10
390.3202149567901
 20
581.7026760754023
 30
0.0
  0
VERTEX
  5
4A5
  8
LAYER_1
 10
389.9318116830837
 20
581.9078622863487
 30
0.0
  0
VERTEX
  5
4A6
  8
LAYER_1
 10
389.5417184749015
 20
582.099810677234
 30
0.0
  0
VERTEX
  5
4A7
  8
LAYER_1
 10
389.1499353322433
 20
582.2785212480584
 30
0.0
  0
VERTEX
  5
4A8
  8
LAYER_1
 10
388.7564622551094
 20
582.4439939988216
 30
0.0
  0
VERTEX
  5
4A9
  8
LAYER_1
 10
388.3612992434995
 20
582.5962289295238
 30
0.0
  0
VERTEX
  5
4AA
  8
LAYER_1
 10
387.9644462974138
 20
582.7352260401649
 30
0.0
  0
VERTEX
  5
4AB
  8
LAYER_1
 10
387.5659034168522
 20
582.8609853307449
 30
0.0
  0
VERTEX
  5
4AC
  8
LAYER_1
 10
387.1656706018147
 20
582.9735068012639
 30
0.0
  0
VERTEX
  5
4AD
  8
LAYER_1
 10
386.7637478523012
 20
583.0727904517219
 30
0.0
  0
VERTEX
  5
4AE
  8
LAYER_1
 10
386.360135168312
 20
583.1588362821187
 30
0.0
  0
VERTEX
  5
4AF
  8
LAYER_1
 10
385.9548325498469
 20
583.2316442924546
 30
0.0
  0
VERTEX
  5
4B0
  8
LAYER_1
 10
385.5478399969059
 20
583.2912144827293
 30
0.0
  0
VERTEX
  5
4B1
  8
LAYER_1
 10
385.1391575094889
 20
583.337546852943
 30
0.0
  0
VERTEX
  5
4B2
  8
LAYER_1
 10
384.7287850875961
 20
583.3706414030955
 30
0.0
  0
VERTEX
  5
4B3
  8
LAYER_1
 10
384.3167227312274
 20
583.3904981331872
 30
0.0
  0
VERTEX
  5
4B4
  8
LAYER_1
 10
383.9029704403829
 20
583.3971170432177
 30
0.0
  0
VERTEX
  5
4B5
  8
LAYER_1
 10
383.4393650824999
 20
583.3881744732828
 30
0.0
  0
VERTEX
  5
4B6
  8
LAYER_1
 10
382.9858993314723
 20
583.3613467634782
 30
0.0
  0
VERTEX
  5
4B7
  8
LAYER_1
 10
382.5425731872998
 20
583.3166339138039
 30
0.0
  0
VERTEX
  5
4B8
  8
LAYER_1
 10
382.1093866499826
 20
583.2540359242598
 30
0.0
  0
VERTEX
  5
4B9
  8
LAYER_1
 10
381.6863397195207
 20
583.173552794846
 30
0.0
  0
VERTEX
  5
4BA
  8
LAYER_1
 10
381.2734323959141
 20
583.0751845255626
 30
0.0
  0
VERTEX
  5
4BB
  8
LAYER_1
 10
380.8706646791628
 20
582.9589311164094
 30
0.0
  0
VERTEX
  5
4BC
  8
LAYER_1
 10
380.4780365692668
 20
582.8247925673865
 30
0.0
  0
VERTEX
  5
4BD
  8
LAYER_1
 10
380.095548066226
 20
582.6727688784937
 30
0.0
  0
VERTEX
  5
4BE
  8
LAYER_1
 10
379.7231991700405
 20
582.5028600497312
 30
0.0
  0
VERTEX
  5
4BF
  8
LAYER_1
 10
379.3609898807102
 20
582.3150660810992
 30
0.0
  0
VERTEX
  5
4C0
  8
LAYER_1
 10
379.0089201982354
 20
582.1093869725973
 30
0.0
  0
VERTEX
  5
4C1
  8
LAYER_1
 10
378.6669901226156
 20
581.8858227242258
 30
0.0
  0
VERTEX
  5
4C2
  8
LAYER_1
 10
378.3351996538513
 20
581.6443733359845
 30
0.0
  0
VERTEX
  5
4C3
  8
LAYER_1
 10
378.0135487919422
 20
581.3850388078735
 30
0.0
  0
VERTEX
  5
4C4
  8
LAYER_1
 10
377.7020375368884
 20
581.1078191398926
 30
0.0
  0
VERTEX
  5
4C5
  8
LAYER_1
 10
377.4051723806255
 20
580.8191924141997
 30
0.0
  0
VERTEX
  5
4C6
  8
LAYER_1
 10
377.1274598150893
 20
580.5256367129521
 30
0.0
  0
VERTEX
  5
4C7
  8
LAYER_1
 10
376.8688998402797
 20
580.22715203615
 30
0.0
  0
VERTEX
  5
4C8
  8
LAYER_1
 10
376.6294924561968
 20
579.923738383793
 30
0.0
  0
VERTEX
  5
4C9
  8
LAYER_1
 10
376.4092376628404
 20
579.6153957558814
 30
0.0
  0
VERTEX
  5
4CA
  8
LAYER_1
 10
376.2081354602108
 20
579.3021241524152
 30
0.0
  0
VERTEX
  5
4CB
  8
LAYER_1
 10
376.0261858483077
 20
578.9839235733945
 30
0.0
  0
VERTEX
  5
4CC
  8
LAYER_1
 10
375.8633888271313
 20
578.6607940188189
 30
0.0
  0
VERTEX
  5
4CD
  8
LAYER_1
 10
375.7197443966814
 20
578.3327354886889
 30
0.0
  0
VERTEX
  5
4CE
  8
LAYER_1
 10
375.5952525569584
 20
577.999747983004
 30
0.0
  0
VERTEX
  5
4CF
  8
LAYER_1
 10
375.4899133079618
 20
577.6618315017646
 30
0.0
  0
VERTEX
  5
4D0
  8
LAYER_1
 10
375.403726649692
 20
577.3189860449704
 30
0.0
  0
VERTEX
  5
4D1
  8
LAYER_1
 10
375.3366925821488
 20
576.9712116126217
 30
0.0
  0
VERTEX
  5
4D2
  8
LAYER_1
 10
375.2888111053322
 20
576.6185082047182
 30
0.0
  0
VERTEX
  5
4D3
  8
LAYER_1
 10
375.2600822192423
 20
576.2608758212602
 30
0.0
  0
VERTEX
  5
4D4
  8
LAYER_1
 10
375.250505923879
 20
575.8983144622475
 30
0.0
  0
VERTEX
  5
4D5
  8
LAYER_1
 10
375.2565615224175
 20
575.6204610688385
 30
0.0
  0
VERTEX
  5
4D6
  8
LAYER_1
 10
375.2747283180332
 20
575.3457058886349
 30
0.0
  0
VERTEX
  5
4D7
  8
LAYER_1
 10
375.3050063107261
 20
575.0740489216373
 30
0.0
  0
VERTEX
  5
4D8
  8
LAYER_1
 10
375.3473955004961
 20
574.8054901678454
 30
0.0
  0
VERTEX
  5
4D9
  8
LAYER_1
 10
375.4018958873432
 20
574.5400296272593
 30
0.0
  0
VERTEX
  5
4DA
  8
LAYER_1
 10
375.4685074712675
 20
574.2776672998789
 30
0.0
  0
VERTEX
  5
4DB
  8
LAYER_1
 10
375.5472302522688
 20
574.0184031857044
 30
0.0
  0
VERTEX
  5
4DC
  8
LAYER_1
 10
375.6380642303474
 20
573.7622372847356
 30
0.0
  0
VERTEX
  5
4DD
  8
LAYER_1
 10
375.7410094055031
 20
573.5091695969727
 30
0.0
  0
VERTEX
  5
4DE
  8
LAYER_1
 10
375.8560657777359
 20
573.2592001224155
 30
0.0
  0
VERTEX
  5
4DF
  8
LAYER_1
 10
375.9832333470458
 20
573.0123288610641
 30
0.0
  0
VERTEX
  5
4E0
  8
LAYER_1
 10
376.1225121134329
 20
572.7685558129184
 30
0.0
  0
VERTEX
  5
4E1
  8
LAYER_1
 10
376.2739020768971
 20
572.5278809779786
 30
0.0
  0
VERTEX
  5
4E2
  8
LAYER_1
 10
376.4374032374385
 20
572.2903043562444
 30
0.0
  0
VERTEX
  5
4E3
  8
LAYER_1
 10
376.613015595057
 20
572.0558259477161
 30
0.0
  0
VERTEX
  5
4E4
  8
LAYER_1
 10
376.8007391497526
 20
571.8244457523936
 30
0.0
  0
VERTEX
  5
4E5
  8
LAYER_1
 10
377.104223216046
 20
571.4794174635681
 30
0.0
  0
VERTEX
  5
4E6
  8
LAYER_1
 10
377.4558704149019
 20
571.1203063874439
 30
0.0
  0
VERTEX
  5
4E7
  8
LAYER_1
 10
377.8556807463205
 20
570.7471125240204
 30
0.0
  0
VERTEX
  5
4E8
  8
LAYER_1
 10
378.3036542103016
 20
570.3598358732979
 30
0.0
  0
VERTEX
  5
4E9
  8
LAYER_1
 10
378.7997908068453
 20
569.9584764352765
 30
0.0
  0
VERTEX
  5
4EA
  8
LAYER_1
 10
379.3440905359515
 20
569.5430342099561
 30
0.0
  0
VERTEX
  5
4EB
  8
LAYER_1
 10
379.9365533976203
 20
569.1135091973366
 30
0.0
  0
VERTEX
  5
4EC
  8
LAYER_1
 10
380.5771793918517
 20
568.6699013974182
 30
0.0
  0
VERTEX
  5
4ED
  8
LAYER_1
 10
381.2659685186457
 20
568.2122108102008
 30
0.0
  0
VERTEX
  5
4EE
  8
LAYER_1
 10
382.0029207780022
 20
567.7404374356845
 30
0.0
  0
VERTEX
  5
4EF
  8
LAYER_1
 10
382.7880361699214
 20
567.254581273869
 30
0.0
  0
VERTEX
  5
4F0
  8
LAYER_1
 10
383.6213146944031
 20
566.7546423247545
 30
0.0
  0
VERTEX
  5
4F1
  8
LAYER_1
 10
384.5027563514473
 20
566.240620588341
 30
0.0
  0
VERTEX
  5
4F2
  8
LAYER_1
 10
385.4323611410541
 20
565.7125160646287
 30
0.0
  0
VERTEX
  5
4F3
  8
LAYER_1
 10
386.4101290632235
 20
565.1703287536172
 30
0.0
  0
VERTEX
  5
4F4
  8
LAYER_1
 10
387.4360601179554
 20
564.614058655307
 30
0.0
  0
VERTEX
  5
4F5
  8
LAYER_1
 10
389.0806480187323
 20
563.7214915962966
 30
0.0
  0
VERTEX
  5
4F6
  8
LAYER_1
 10
390.5894778499469
 20
562.8824391290223
 30
0.0
  0
VERTEX
  5
4F7
  8
LAYER_1
 10
391.9625496115992
 20
562.0969012534842
 30
0.0
  0
VERTEX
  5
4F8
  8
LAYER_1
 10
393.1998633036891
 20
561.3648779696823
 30
0.0
  0
VERTEX
  5
4F9
  8
LAYER_1
 10
394.3014189262166
 20
560.6863692776167
 30
0.0
  0
VERTEX
  5
4FA
  8
LAYER_1
 10
395.2672164791819
 20
560.061375177287
 30
0.0
  0
VERTEX
  5
4FB
  8
LAYER_1
 10
395.6992059795786
 20
559.7689460990233
 30
0.0
  0
VERTEX
  5
4FC
  8
LAYER_1
 10
396.0972559625848
 20
559.4898956686937
 30
0.0
  0
VERTEX
  5
4FD
  8
LAYER_1
 10
396.4613664282003
 20
559.2242238862982
 30
0.0
  0
VERTEX
  5
4FE
  8
LAYER_1
 10
396.7915373764254
 20
558.9719307518366
 30
0.0
  0
VERTEX
  5
4FF
  8
LAYER_1
 10
397.1002320740194
 20
558.7235807978187
 30
0.0
  0
VERTEX
  5
500
  8
LAYER_1
 10
397.3999137877421
 20
558.4697385567544
 30
0.0
  0
VERTEX
  5
501
  8
LAYER_1
 10
397.6905825175934
 20
558.2104040286433
 30
0.0
  0
VERTEX
  5
502
  8
LAYER_1
 10
397.9722382635733
 20
557.9455772134856
 30
0.0
  0
VERTEX
  5
503
  8
LAYER_1
 10
398.2448810256819
 20
557.6752581112814
 30
0.0
  0
VERTEX
  5
504
  8
LAYER_1
 10
398.5085108039191
 20
557.3994467220306
 30
0.0
  0
VERTEX
  5
505
  8
LAYER_1
 10
398.763127598285
 20
557.1181430457331
 30
0.0
  0
VERTEX
  5
506
  8
LAYER_1
 10
399.0087314087796
 20
556.831347082389
 30
0.0
  0
VERTEX
  5
507
  8
LAYER_1
 10
399.2453222354027
 20
556.5390588319984
 30
0.0
  0
VERTEX
  5
508
  8
LAYER_1
 10
399.4729000781546
 20
556.2412782945611
 30
0.0
  0
VERTEX
  5
509
  8
LAYER_1
 10
399.691464937035
 20
555.9380054700771
 30
0.0
  0
VERTEX
  5
50A
  8
LAYER_1
 10
399.9010168120441
 20
555.6292403585466
 30
0.0
  0
VERTEX
  5
50B
  8
LAYER_1
 10
400.1015557031818
 20
555.3149829599695
 30
0.0
  0
VERTEX
  5
50C
  8
LAYER_1
 10
400.2930816104481
 20
554.9952332743458
 30
0.0
  0
VERTEX
  5
50D
  8
LAYER_1
 10
400.4755945338432
 20
554.6699913016753
 30
0.0
  0
VERTEX
  5
50E
  8
LAYER_1
 10
400.6490944733667
 20
554.3392570419584
 30
0.0
  0
VERTEX
  5
50F
  8
LAYER_1
 10
400.8128068757176
 20
554.0047908436072
 30
0.0
  0
VERTEX
  5
510
  8
LAYER_1
 10
400.9659571875942
 20
553.6683530550341
 30
0.0
  0
VERTEX
  5
511
  8
LAYER_1
 10
401.1085454089965
 20
553.3299436762392
 30
0.0
  0
VERTEX
  5
512
  8
LAYER_1
 10
401.2405715399246
 20
552.9895627072224
 30
0.0
  0
VERTEX
  5
513
  8
LAYER_1
 10
401.3620355803785
 20
552.6472101479837
 30
0.0
  0
VERTEX
  5
514
  8
LAYER_1
 10
401.4729375303581
 20
552.3028859985234
 30
0.0
  0
VERTEX
  5
515
  8
LAYER_1
 10
401.5732773898634
 20
551.9565902588411
 30
0.0
  0
VERTEX
  5
516
  8
LAYER_1
 10
401.6630551588946
 20
551.6083229289368
 30
0.0
  0
VERTEX
  5
517
  8
LAYER_1
 10
401.7422708374514
 20
551.2580840088108
 30
0.0
  0
VERTEX
  5
518
  8
LAYER_1
 10
401.810924425534
 20
550.9058734984628
 30
0.0
  0
VERTEX
  5
519
  8
LAYER_1
 10
401.8690159231424
 20
550.5516913978931
 30
0.0
  0
VERTEX
  5
51A
  8
LAYER_1
 10
401.9165453302766
 20
550.1955377071014
 30
0.0
  0
VERTEX
  5
51B
  8
LAYER_1
 10
401.9535126469364
 20
549.8374124260879
 30
0.0
  0
VERTEX
  5
51C
  8
LAYER_1
 10
401.9799178731221
 20
549.4773155548526
 30
0.0
  0
VERTEX
  5
51D
  8
LAYER_1
 10
401.9957610088334
 20
549.1152470933954
 30
0.0
  0
VERTEX
  5
51E
  8
LAYER_1
 10
402.0010420540705
 20
548.7512070417163
 30
0.0
  0
VERTEX
  5
51F
  8
LAYER_1
 10
401.9968348213649
 20
548.4057034588195
 30
0.0
  0
VERTEX
  5
520
  8
LAYER_1
 10
401.9842131232482
 20
548.0631924682237
 30
0.0
  0
VERTEX
  5
521
  8
LAYER_1
 10
401.9631769597204
 20
547.7236740699291
 30
0.0
  0
VERTEX
  5
522
  8
LAYER_1
 10
401.9337263307813
 20
547.3871482639354
 30
0.0
  0
VERTEX
  5
523
  8
LAYER_1
 10
401.8958612364312
 20
547.0536150502428
 30
0.0
  0
VERTEX
  5
524
  8
LAYER_1
 10
401.8495816766698
 20
546.7230744288511
 30
0.0
  0
VERTEX
  5
525
  8
LAYER_1
 10
401.7948876514973
 20
546.3955263997607
 30
0.0
  0
VERTEX
  5
526
  8
LAYER_1
 10
401.7317791609137
 20
546.070970962971
 30
0.0
  0
VERTEX
  5
527
  8
LAYER_1
 10
401.6602562049189
 20
545.7494081184826
 30
0.0
  0
VERTEX
  5
528
  8
LAYER_1
 10
401.580318783513
 20
545.4308378662952
 30
0.0
  0
VERTEX
  5
529
  8
LAYER_1
 10
401.4919668966958
 20
545.1152602064088
 30
0.0
  0
VERTEX
  5
52A
  8
LAYER_1
 10
401.3952005444676
 20
544.8026751388234
 30
0.0
  0
VERTEX
  5
52B
  8
LAYER_1
 10
401.2900197268282
 20
544.4930826635391
 30
0.0
  0
VERTEX
  5
52C
  8
LAYER_1
 10
401.1764244437777
 20
544.1864827805557
 30
0.0
  0
VERTEX
  5
52D
  8
LAYER_1
 10
401.054414695316
 20
543.8828754898734
 30
0.0
  0
VERTEX
  5
52E
  8
LAYER_1
 10
400.9239904814432
 20
543.5822607914922
 30
0.0
  0
VERTEX
  5
52F
  8
LAYER_1
 10
400.7851518021592
 20
543.2846386854121
 30
0.0
  0
VERTEX
  5
530
  8
LAYER_1
 10
400.6378986574641
 20
542.9900091716329
 30
0.0
  0
VERTEX
  5
531
  8
LAYER_1
 10
400.4822310473578
 20
542.6983722501548
 30
0.0
  0
VERTEX
  5
532
  8
LAYER_1
 10
400.3181489718403
 20
542.4097279209777
 30
0.0
  0
VERTEX
  5
533
  8
LAYER_1
 10
400.1456524309117
 20
542.1240761841016
 30
0.0
  0
VERTEX
  5
534
  8
LAYER_1
 10
399.964741424572
 20
541.8414170395265
 30
0.0
  0
VERTEX
  5
535
  8
LAYER_1
 10
399.775415952821
 20
541.5617504872527
 30
0.0
  0
VERTEX
  5
536
  8
LAYER_1
 10
399.577676015659
 20
541.2850765272797
 30
0.0
  0
VERTEX
  5
537
  8
LAYER_1
 10
399.3715216130859
 20
541.0113951596078
 30
0.0
  0
VERTEX
  5
538
  8
LAYER_1
 10
399.1569527451015
 20
540.7407063842369
 30
0.0
  0
VERTEX
  5
539
  8
LAYER_1
 10
398.933969411706
 20
540.4730102011672
 30
0.0
  0
VERTEX
  5
53A
  8
LAYER_1
 10
398.7025716128993
 20
540.2083066103984
 30
0.0
  0
VERTEX
  5
53B
  8
LAYER_1
 10
398.4627593486815
 20
539.9465956119307
 30
0.0
  0
VERTEX
  5
53C
  8
LAYER_1
 10
398.2145326190526
 20
539.6878772057639
 30
0.0
  0
VERTEX
  5
53D
  8
LAYER_1
 10
397.9578914240125
 20
539.4321513918983
 30
0.0
  0
VERTEX
  5
53E
  8
LAYER_1
 10
397.6928357635612
 20
539.1794181703336
 30
0.0
  0
VERTEX
  5
53F
  8
LAYER_1
 10
397.4211611930795
 20
538.9321068218792
 30
0.0
  0
VERTEX
  5
540
  8
LAYER_1
 10
397.1446632679477
 20
538.6926466273437
 30
0.0
  0
VERTEX
  5
541
  8
LAYER_1
 10
396.8633419881662
 20
538.4610375867278
 30
0.0
  0
VERTEX
  5
542
  8
LAYER_1
 10
396.5771973537346
 20
538.2372797000307
 30
0.0
  0
VERTEX
  5
543
  8
LAYER_1
 10
396.2862293646532
 20
538.021372967253
 30
0.0
  0
VERTEX
  5
544
  8
LAYER_1
 10
395.9904380209219
 20
537.8133173883944
 30
0.0
  0
VERTEX
  5
545
  8
LAYER_1
 10
395.6898233225407
 20
537.613112963455
 30
0.0
  0
VERTEX
  5
546
  8
LAYER_1
 10
395.3843852695096
 20
537.4207596924348
 30
0.0
  0
VERTEX
  5
547
  8
LAYER_1
 10
395.0741238618285
 20
537.2362575753339
 30
0.0
  0
VERTEX
  5
548
  8
LAYER_1
 10
394.7590390994976
 20
537.059606612152
 30
0.0
  0
VERTEX
  5
549
  8
LAYER_1
 10
394.4391309825167
 20
536.8908068028895
 30
0.0
  0
VERTEX
  5
54A
  8
LAYER_1
 10
394.114399510886
 20
536.7298581475461
 30
0.0
  0
VERTEX
  5
54B
  8
LAYER_1
 10
393.7848446846053
 20
536.576760646122
 30
0.0
  0
VERTEX
  5
54C
  8
LAYER_1
 10
393.4504665036748
 20
536.4315142986168
 30
0.0
  0
VERTEX
  5
54D
  8
LAYER_1
 10
393.1112649680942
 20
536.2941191050311
 30
0.0
  0
VERTEX
  5
54E
  8
LAYER_1
 10
392.7672400778639
 20
536.1645750653643
 30
0.0
  0
VERTEX
  5
54F
  8
LAYER_1
 10
392.4183918329836
 20
536.042882179617
 30
0.0
  0
VERTEX
  5
550
  8
LAYER_1
 10
392.0647202334534
 20
535.9290404477886
 30
0.0
  0
VERTEX
  5
551
  8
LAYER_1
 10
391.7062252792733
 20
535.8230498698797
 30
0.0
  0
VERTEX
  5
552
  8
LAYER_1
 10
391.3429069704433
 20
535.7249104458897
 30
0.0
  0
VERTEX
  5
553
  8
LAYER_1
 10
390.9747653069634
 20
535.634622175819
 30
0.0
  0
VERTEX
  5
554
  8
LAYER_1
 10
390.6018002888336
 20
535.5521850596674
 30
0.0
  0
VERTEX
  5
555
  8
LAYER_1
 10
390.2240119160539
 20
535.4775990974351
 30
0.0
  0
VERTEX
  5
556
  8
LAYER_1
 10
389.8414001886242
 20
535.410864289122
 30
0.0
  0
VERTEX
  5
557
  8
LAYER_1
 10
389.4539651065447
 20
535.3519806347281
 30
0.0
  0
VERTEX
  5
558
  8
LAYER_1
 10
389.0617066698152
 20
535.3009481342533
 30
0.0
  0
VERTEX
  5
559
  8
LAYER_1
 10
388.6646248784358
 20
535.2577667876978
 30
0.0
  0
VERTEX
  5
55A
  8
LAYER_1
 10
388.2627197324065
 20
535.2224365950615
 30
0.0
  0
VERTEX
  5
55B
  8
LAYER_1
 10
387.8559912317273
 20
535.1949575563443
 30
0.0
  0
VERTEX
  5
55C
  8
LAYER_1
 10
387.4444393763983
 20
535.1753296715463
 30
0.0
  0
VERTEX
  5
55D
  8
LAYER_1
 10
387.0280641664193
 20
535.1635529406675
 30
0.0
  0
VERTEX
  5
55E
  8
LAYER_1
 10
386.6068656017904
 20
535.1596273637078
 30
0.0
  0
VERTEX
  5
55F
  8
LAYER_1
 10
386.0790427338241
 20
535.1646971671355
 30
0.0
  0
VERTEX
  5
560
  8
LAYER_1
 10
385.559106226745
 20
535.1799065774184
 30
0.0
  0
VERTEX
  5
561
  8
LAYER_1
 10
385.0470560805535
 20
535.2052555945565
 30
0.0
  0
VERTEX
  5
562
  8
LAYER_1
 10
384.5428922952494
 20
535.24074421855
 30
0.0
  0
VERTEX
  5
563
  8
LAYER_1
 10
384.0466148708327
 20
535.2863724493989
 30
0.0
  0
VERTEX
  5
564
  8
LAYER_1
 10
383.5582238073035
 20
535.3421402871029
 30
0.0
  0
VERTEX
  5
565
  8
LAYER_1
 10
383.0777191046617
 20
535.4080477316622
 30
0.0
  0
VERTEX
  5
566
  8
LAYER_1
 10
382.6051007629073
 20
535.4840947830768
 30
0.0
  0
VERTEX
  5
567
  8
LAYER_1
 10
382.28823804868
 20
535.5440874569706
 30
0.0
  0
VERTEX
  5
568
  8
LAYER_1
 10
381.8964549060219
 20
535.6339356399382
 30
0.0
  0
VERTEX
  5
569
  8
LAYER_1
 10
381.4297513349331
 20
535.7536393319797
 30
0.0
  0
VERTEX
  5
56A
  8
LAYER_1
 10
380.8881273354136
 20
535.903198533095
 30
0.0
  0
VERTEX
  5
56B
  8
LAYER_1
 10
379.5801180510828
 20
536.2918834625472
 30
0.0
  0
VERTEX
  5
56C
  8
LAYER_1
 10
377.9724270530292
 20
536.799990428295
 30
0.0
  0
VERTEX
  5
56D
  8
LAYER_1
 10
377.1339378972468
 20
537.066155108246
 30
0.0
  0
VERTEX
  5
56E
  8
LAYER_1
 10
376.3760022848147
 20
537.2968311642036
 30
0.0
  0
VERTEX
  5
56F
  8
LAYER_1
 10
375.698620215733
 20
537.4920185961677
 30
0.0
  0
VERTEX
  5
570
  8
LAYER_1
 10
375.1017916900015
 20
537.6517174041384
 30
0.0
  0
VERTEX
  5
571
  8
LAYER_1
 10
374.5855167076203
 20
537.7759275881155
 30
0.0
  0
VERTEX
  5
572
  8
LAYER_1
 10
374.1497952685893
 20
537.8646491480993
 30
0.0
  0
VERTEX
  5
573
  8
LAYER_1
 10
373.7946273729086
 20
537.9178820840895
 30
0.0
  0
VERTEX
  5
574
  8
LAYER_1
 10
373.6472510038246
 20
537.931190318087
 30
0.0
  0
VERTEX
  5
575
  8
LAYER_1
 10
373.5200130205781
 20
537.9356263960863
 30
0.0
  0
VERTEX
  5
576
  8
LAYER_1
 10
373.3006031944597
 20
537.9271767237069
 30
0.0
  0
VERTEX
  5
577
  8
LAYER_1
 10
373.0930229096725
 20
537.9018277065686
 30
0.0
  0
VERTEX
  5
578
  8
LAYER_1
 10
372.8972721662165
 20
537.8595793446716
 30
0.0
  0
VERTEX
  5
579
  8
LAYER_1
 10
372.7133509640915
 20
537.8004316380159
 30
0.0
  0
VERTEX
  5
57A
  8
LAYER_1
 10
372.5412593032978
 20
537.7243845866012
 30
0.0
  0
VERTEX
  5
57B
  8
LAYER_1
 10
372.3809971838352
 20
537.6314381904278
 30
0.0
  0
VERTEX
  5
57C
  8
LAYER_1
 10
372.2325646057038
 20
537.5215924494956
 30
0.0
  0
VERTEX
  5
57D
  8
LAYER_1
 10
372.0959615689035
 20
537.3948473638047
 30
0.0
  0
VERTEX
  5
57E
  8
LAYER_1
 10
371.9694981389586
 20
537.2416266379917
 30
0.0
  0
VERTEX
  5
57F
  8
LAYER_1
 10
371.8514843813929
 20
537.0523539766932
 30
0.0
  0
VERTEX
  5
580
  8
LAYER_1
 10
371.7419202962067
 20
536.8270293799092
 30
0.0
  0
VERTEX
  5
581
  8
LAYER_1
 10
371.6408058833999
 20
536.5656528476397
 30
0.0
  0
VERTEX
  5
582
  8
LAYER_1
 10
371.5481411429726
 20
536.2682243798849
 30
0.0
  0
VERTEX
  5
583
  8
LAYER_1
 10
371.4639260749245
 20
535.9347439766448
 30
0.0
  0
VERTEX
  5
584
  8
LAYER_1
 10
371.3881606792559
 20
535.565211637919
 30
0.0
  0
VERTEX
  5
585
  8
LAYER_1
 10
371.3208449559667
 20
535.1596273637078
 30
0.0
  0
VERTEX
  5
586
  8
LAYER_1
 10
369.9869233430057
 20
535.1596273637078
 30
0.0
  0
VERTEX
  5
587
  8
LAYER_1
 10
369.9869233430057
 20
551.9237773644344
 30
0.0
  0
VERTEX
  5
588
  8
LAYER_1
 10
371.3208449559667
 20
551.9237773644344
 30
0.0
  0
VERTEX
  5
589
  8
LAYER_1
 10
371.4405486480082
 20
551.2761803904899
 30
0.0
  0
VERTEX
  5
58A
  8
LAYER_1
 10
371.5653221434773
 20
550.6492851138751
 30
0.0
  0
VERTEX
  5
58B
  8
LAYER_1
 10
371.695165442374
 20
550.0430915345897
 30
0.0
  0
VERTEX
  5
58C
  8
LAYER_1
 10
371.8300785446984
 20
549.4575996526339
 30
0.0
  0
VERTEX
  5
58D
  8
LAYER_1
 10
371.9700614504505
 20
548.8928094680076
 30
0.0
  0
VERTEX
  5
58E
  8
LAYER_1
 10
372.1151141596301
 20
548.3487209807108
 30
0.0
  0
VERTEX
  5
58F
  8
LAYER_1
 10
372.2652366722374
 20
547.8253341907435
 30
0.0
  0
VERTEX
  5
590
  8
LAYER_1
 10
372.4204289882724
 20
547.3226490981059
 30
0.0
  0
VERTEX
  5
591
  8
LAYER_1
 10
372.580691107735
 20
546.8406657027978
 30
0.0
  0
VERTEX
  5
592
  8
LAYER_1
 10
372.7460230306252
 20
546.379384004819
 30
0.0
  0
VERTEX
  5
593
  8
LAYER_1
 10
372.9164247569431
 20
545.9388040041699
 30
0.0
  0
VERTEX
  5
594
  8
LAYER_1
 10
373.0918962866886
 20
545.5189257008503
 30
0.0
  0
VERTEX
  5
595
  8
LAYER_1
 10
373.2724376198618
 20
545.1197490948603
 30
0.0
  0
VERTEX
  5
596
  8
LAYER_1
 10
373.4580487564626
 20
544.7412741861997
 30
0.0
  0
VERTEX
  5
597
  8
LAYER_1
 10
373.648729696491
 20
544.3835009748686
 30
0.0
  0
VERTEX
  5
598
  8
LAYER_1
 10
373.8444804399471
 20
544.0464294608672
 30
0.0
  0
VERTEX
  5
599
  8
LAYER_1
 10
374.0493145812109
 20
543.7231590784187
 30
0.0
  0
VERTEX
  5
59A
  8
LAYER_1
 10
374.2672457146629
 20
543.4067892617467
 30
0.0
  0
VERTEX
  5
59B
  8
LAYER_1
 10
374.498273840303
 20
543.0973200108511
 30
0.0
  0
VERTEX
  5
59C
  8
LAYER_1
 10
374.7423989581312
 20
542.7947513257322
 30
0.0
  0
VERTEX
  5
59D
  8
LAYER_1
 10
374.9996210681473
 20
542.4990832063897
 30
0.0
  0
VERTEX
  5
59E
  8
LAYER_1
 10
375.2699401703516
 20
542.2103156528239
 30
0.0
  0
VERTEX
  5
59F
  8
LAYER_1
 10
375.5533562647439
 20
541.9284486650344
 30
0.0
  0
VERTEX
  5
5A0
  8
LAYER_1
 10
375.8498693513243
 20
541.6534822430215
 30
0.0
  0
VERTEX
  5
5A1
  8
LAYER_1
 10
376.1594794300927
 20
541.385416386785
 30
0.0
  0
VERTEX
  5
5A2
  8
LAYER_1
 10
376.4821865010492
 20
541.1242510963251
 30
0.0
  0
VERTEX
  5
5A3
  8
LAYER_1
 10
376.8179905641938
 20
540.8699863716417
 30
0.0
  0
VERTEX
  5
5A4
  8
LAYER_1
 10
377.1668916195265
 20
540.6226222127349
 30
0.0
  0
VERTEX
  5
5A5
  8
LAYER_1
 10
377.5288896670472
 20
540.3821586196044
 30
0.0
  0
VERTEX
  5
5A6
  8
LAYER_1
 10
377.903984706756
 20
540.1485955922507
 30
0.0
  0
VERTEX
  5
5A7
  8
LAYER_1
 10
378.2921767386529
 20
539.9219331306733
 30
0.0
  0
VERTEX
  5
5A8
  8
LAYER_1
 10
378.6934657627378
 20
539.7021712348725
 30
0.0
  0
VERTEX
  5
5A9
  8
LAYER_1
 10
379.1037677706941
 20
539.4926193598633
 30
0.0
  0
VERTEX
  5
5AA
  8
LAYER_1
 10
379.5189987542051
 20
539.2965869606612
 30
0.0
  0
VERTEX
  5
5AB
  8
LAYER_1
 10
379.9391587132707
 20
539.1140740372662
 30
0.0
  0
VERTEX
  5
5AC
  8
LAYER_1
 10
380.3642476478909
 20
538.9450805896782
 30
0.0
  0
VERTEX
  5
5AD
  8
LAYER_1
 10
380.7942655580658
 20
538.7896066178973
 30
0.0
  0
VERTEX
  5
5AE
  8
LAYER_1
 10
381.2292124437953
 20
538.6476521219234
 30
0.0
  0
VERTEX
  5
5AF
  8
LAYER_1
 10
381.6690883050795
 20
538.5192171017566
 30
0.0
  0
VERTEX
  5
5B0
  8
LAYER_1
 10
382.1138931419183
 20
538.4043015573968
 30
0.0
  0
VERTEX
  5
5B1
  8
LAYER_1
 10
382.5636269543118
 20
538.3029054888441
 30
0.0
  0
VERTEX
  5
5B2
  8
LAYER_1
 10
383.01828974226
 20
538.2150288960983
 30
0.0
  0
VERTEX
  5
5B3
  8
LAYER_1
 10
383.4778815057628
 20
538.1406717791596
 30
0.0
  0
VERTEX
  5
5B4
  8
LAYER_1
 10
383.9424022448202
 20
538.0798341380279
 30
0.0
  0
VERTEX
  5
5B5
  8
LAYER_1
 10
384.4118519594322
 20
538.0325159727032
 30
0.0
  0
VERTEX
  5
5B6
  8
LAYER_1
 10
384.8862306495989
 20
537.9987172831857
 30
0.0
  0
VERTEX
  5
5B7
  8
LAYER_1
 10
385.3655383153204
 20
537.9784380694751
 30
0.0
  0
VERTEX
  5
5B8
  8
LAYER_1
 10
385.8497749565964
 20
537.9716783315716
 30
0.0
  0
VERTEX
  5
5B9
  8
LAYER_1
 10
386.4056929852243
 20
537.980972971189
 30
0.0
  0
VERTEX
  5
5BA
  8
LAYER_1
 10
386.9468240871882
 20
538.008856890041
 30
0.0
  0
VERTEX
  5
5BB
  8
LAYER_1
 10
387.4731682624883
 20
538.0553300881277
 30
0.0
  0
VERTEX
  5
5BC
  8
LAYER_1
 10
387.9847255111244
 20
538.120392565449
 30
0.0
  0
VERTEX
  5
5BD
  8
LAYER_1
 10
388.4814958330966
 20
538.2040443220051
 30
0.0
  0
VERTEX
  5
5BE
  8
LAYER_1
 10
388.9634792284047
 20
538.3062853577958
 30
0.0
  0
VERTEX
  5
5BF
  8
LAYER_1
 10
389.430675697049
 20
538.4271156728212
 30
0.0
  0
VERTEX
  5
5C0
  8
LAYER_1
 10
389.8830852390292
 20
538.5665352670812
 30
0.0
  0
VERTEX
  5
5C1
  8
LAYER_1
 10
390.3207078543456
 20
538.724544140576
 30
0.0
  0
VERTEX
  5
5C2
  8
LAYER_1
 10
390.7435435429979
 20
538.9011422933054
 30
0.0
  0
VERTEX
  5
5C3
  8
LAYER_1
 10
391.1515923049864
 20
539.0963297252695
 30
0.0
  0
VERTEX
  5
5C4
  8
LAYER_1
 10
391.5448541403109
 20
539.3101064364682
 30
0.0
  0
VERTEX
  5
5C5
  8
LAYER_1
 10
391.9233290489714
 20
539.5424724269017
 30
0.0
  0
VERTEX
  5
5C6
  8
LAYER_1
 10
392.287017030968
 20
539.7934276965698
 30
0.0
  0
VERTEX
  5
5C7
  8
LAYER_1
 10
392.6359180863007
 20
540.0629722454726
 30
0.0
  0
VERTEX
  5
5C8
  8
LAYER_1
 10
392.9700322149694
 20
540.3511060736103
 30
0.0
  0
VERTEX
  5
5C9
  8
LAYER_1
 10
393.2865428595144
 20
540.651914410317
 30
0.0
  0
VERTEX
  5
5CA
  8
LAYER_1
 10
393.5826334624758
 20
540.959482484927
 30
0.0
  0
VERTEX
  5
5CB
  8
LAYER_1
 10
393.8583040238537
 20
541.2738102974406
 30
0.0
  0
VERTEX
  5
5CC
  8
LAYER_1
 10
394.1135545436481
 20
541.5948978478577
 30
0.0
  0
VERTEX
  5
5CD
  8
LAYER_1
 10
394.3483850218589
 20
541.9227451361785
 30
0.0
  0
VERTEX
  5
5CE
  8
LAYER_1
 10
394.5627954584861
 20
542.2573521624025
 30
0.0
  0
VERTEX
  5
5CF
  8
LAYER_1
 10
394.7567858535298
 20
542.5987189265303
 30
0.0
  0
VERTEX
  5
5D0
  8
LAYER_1
 10
394.9303562069899
 20
542.9468454285615
 30
0.0
  0
VERTEX
  5
5D1
  8
LAYER_1
 10
395.0835065188664
 20
543.3017316684962
 30
0.0
  0
VERTEX
  5
5D2
  8
LAYER_1
 10
395.2162367891596
 20
543.6633776463344
 30
0.0
  0
VERTEX
  5
5D3
  8
LAYER_1
 10
395.328547017869
 20
544.0317833620762
 30
0.0
  0
VERTEX
  5
5D4
  8
LAYER_1
 10
395.420437204995
 20
544.4069488157214
 30
0.0
  0
VERTEX
  5
5D5
  8
LAYER_1
 10
395.4919073505374
 20
544.7888740072702
 30
0.0
  0
VERTEX
  5
5D6
  8
LAYER_1
 10
395.5429574544963
 20
545.1775589367226
 30
0.0
  0
VERTEX
  5
5D7
  8
LAYER_1
 10
395.5735875168716
 20
545.5730036040785
 30
0.0
  0
VERTEX
  5
5D8
  8
LAYER_1
 10
395.5837975376634
 20
545.9752080093378
 30
0.0
  0
VERTEX
  5
5D9
  8
LAYER_1
 10
395.5799247711561
 20
546.2006734339948
 30
0.0
  0
VERTEX
  5
5DA
  8
LAYER_1
 10
395.5683064716345
 20
546.4264205143977
 30
0.0
  0
VERTEX
  5
5DB
  8
LAYER_1
 10
395.5489426390983
 20
546.6524492505465
 30
0.0
  0
VERTEX
  5
5DC
  8
LAYER_1
 10
395.5218332735478
 20
546.8787596424415
 30
0.0
  0
VERTEX
  5
5DD
  8
LAYER_1
 10
395.4869783749828
 20
547.1053516900824
 30
0.0
  0
VERTEX
  5
5DE
  8
LAYER_1
 10
395.4443779434033
 20
547.3322253934693
 30
0.0
  0
VERTEX
  5
5DF
  8
LAYER_1
 10
395.335940481201
 20
547.7868177674809
 30
0.0
  0
VERTEX
  5
5E0
  8
LAYER_1
 10
395.1965208869409
 20
548.2425367644764
 30
0.0
  0
VERTEX
  5
5E1
  8
LAYER_1
 10
395.026119160623
 20
548.6993823844559
 30
0.0
  0
VERTEX
  5
5E2
  8
LAYER_1
 10
394.8247353022474
 20
549.1573546274194
 30
0.0
  0
VERTEX
  5
5E3
  8
LAYER_1
 10
394.592369311814
 20
549.6164534933666
 30
0.0
  0
VERTEX
  5
5E4
  8
LAYER_1
 10
394.4641455334566
 20
549.8452987869753
 30
0.0
  0
VERTEX
  5
5E5
  8
LAYER_1
 10
394.3273312548469
 20
550.0721724903622
 30
0.0
  0
VERTEX
  5
5E6
  8
LAYER_1
 10
394.1819264759847
 20
550.2970746035271
 30
0.0
  0
VERTEX
  5
5E7
  8
LAYER_1
 10
394.0279311968701
 20
550.5200051264703
 30
0.0
  0
VERTEX
  5
5E8
  8
LAYER_1
 10
393.8653454175032
 20
550.7409640591916
 30
0.0
  0
VERTEX
  5
5E9
  8
LAYER_1
 10
393.6941691378839
 20
550.9599514016911
 30
0.0
  0
VERTEX
  5
5EA
  8
LAYER_1
 10
393.5144023580122
 20
551.1769671539687
 30
0.0
  0
VERTEX
  5
5EB
  8
LAYER_1
 10
393.3260450778881
 20
551.3920113160243
 30
0.0
  0
VERTEX
  5
5EC
  8
LAYER_1
 10
393.1290972975116
 20
551.6050838878582
 30
0.0
  0
VERTEX
  5
5ED
  8
LAYER_1
 10
392.9235590168828
 20
551.8161848694701
 30
0.0
  0
VERTEX
  5
5EE
  8
LAYER_1
 10
392.4867109548678
 20
552.2324720620285
 30
0.0
  0
VERTEX
  5
5EF
  8
LAYER_1
 10
392.0155008918434
 20
552.6408728936995
 30
0.0
  0
VERTEX
  5
5F0
  8
LAYER_1
 10
391.5099288278094
 20
553.0413873644828
 30
0.0
  0
VERTEX
  5
5F1
  8
LAYER_1
 10
391.0823754054119
 20
553.3498004063308
 30
0.0
  0
VERTEX
  5
5F2
  8
LAYER_1
 10
390.5027278801851
 20
553.7342604995935
 30
0.0
  0
VERTEX
  5
5F3
  8
LAYER_1
 10
389.7709862521291
 20
554.1947676442707
 30
0.0
  0
VERTEX
  5
5F4
  8
LAYER_1
 10
388.8871505212441
 20
554.7313218403625
 30
0.0
  0
VERTEX
  5
5F5
  8
LAYER_1
 10
387.8512206875298
 20
555.3439230878688
 30
0.0
  0
VERTEX
  5
5F6
  8
LAYER_1
 10
386.6631967509864
 20
556.0325713867899
 30
0.0
  0
VERTEX
  5
5F7
  8
LAYER_1
 10
385.3230787116138
 20
556.7972667371254
 30
0.0
  0
VERTEX
  5
5F8
  8
LAYER_1
 10
383.8308665694121
 20
557.6380091388755
 30
0.0
  0
VERTEX
  5
5F9
  8
LAYER_1
 10
382.3192201807377
 20
558.4945242624005
 30
0.0
  0
VERTEX
  5
5FA
  8
LAYER_1
 10
380.9207994019473
 20
559.3065377780608
 30
0.0
  0
VERTEX
  5
5FB
  8
LAYER_1
 10
379.6356042330408
 20
560.074049685856
 30
0.0
  0
VERTEX
  5
5FC
  8
LAYER_1
 10
378.4636346740182
 20
560.7970599857866
 30
0.0
  0
VERTEX
  5
5FD
  8
LAYER_1
 10
377.4048907248796
 20
561.4755686778523
 30
0.0
  0
VERTEX
  5
5FE
  8
LAYER_1
 10
376.4593723856249
 20
562.1095757620532
 30
0.0
  0
VERTEX
  5
5FF
  8
LAYER_1
 10
375.6270796562542
 20
562.6990812383892
 30
0.0
  0
VERTEX
  5
600
  8
LAYER_1
 10
375.2533928952753
 20
562.9771458736079
 30
0.0
  0
VERTEX
  5
601
  8
LAYER_1
 10
374.9080125367673
 20
563.2440851068604
 30
0.0
  0
VERTEX
  5
602
  8
LAYER_1
 10
374.581784768986
 20
563.5071515736057
 30
0.0
  0
VERTEX
  5
603
  8
LAYER_1
 10
374.2655557801871
 20
563.7735979093027
 30
0.0
  0
VERTEX
  5
604
  8
LAYER_1
 10
373.9593255703704
 20
564.0434241139515
 30
0.0
  0
VERTEX
  5
605
  8
LAYER_1
 10
373.663094139536
 20
564.316630187552
 30
0.0
  0
VERTEX
  5
606
  8
LAYER_1
 10
373.3768614876838
 20
564.5932161301045
 30
0.0
  0
VERTEX
  5
607
  8
LAYER_1
 10
373.100627614814
 20
564.8731819416084
 30
0.0
  0
VERTEX
  5
608
  8
LAYER_1
 10
372.8343925209265
 20
565.1565276220642
 30
0.0
  0
VERTEX
  5
609
  8
LAYER_1
 10
372.5781562060212
 20
565.4432531714718
 30
0.0
  0
VERTEX
  5
60A
  8
LAYER_1
 10
372.3319186700982
 20
565.7333585898313
 30
0.0
  0
VERTEX
  5
60B
  8
LAYER_1
 10
372.0956799131576
 20
566.0268438771423
 30
0.0
  0
VERTEX
  5
60C
  8
LAYER_1
 10
371.8694399351992
 20
566.3237090334051
 30
0.0
  0
VERTEX
  5
60D
  8
LAYER_1
 10
371.6531987362231
 20
566.6239540586198
 30
0.0
  0
VERTEX
  5
60E
  8
LAYER_1
 10
371.4469563162292
 20
566.9275789527862
 30
0.0
  0
VERTEX
  5
60F
  8
LAYER_1
 10
371.2507126752177
 20
567.2345837159044
 30
0.0
  0
VERTEX
  5
610
  8
LAYER_1
 10
371.0644678131885
 20
567.5449683479742
 30
0.0
  0
VERTEX
  5
611
  8
LAYER_1
 10
370.8882217301415
 20
567.8587328489959
 30
0.0
  0
VERTEX
  5
612
  8
LAYER_1
 10
370.7223264957593
 20
568.1761588747154
 30
0.0
  0
VERTEX
  5
613
  8
LAYER_1
 10
370.5671341797243
 20
568.4975280808785
 30
0.0
  0
VERTEX
  5
614
  8
LAYER_1
 10
370.4226447820367
 20
568.8228404674853
 30
0.0
  0
VERTEX
  5
615
  8
LAYER_1
 10
370.2888583026962
 20
569.1520960345358
 30
0.0
  0
VERTEX
  5
616
  8
LAYER_1
 10
370.1657747417029
 20
569.48529478203
 30
0.0
  0
VERTEX
  5
617
  8
LAYER_1
 10
370.0533940990569
 20
569.8224367099681
 30
0.0
  0
VERTEX
  5
618
  8
LAYER_1
 10
369.9517163747581
 20
570.1635218183497
 30
0.0
  0
VERTEX
  5
619
  8
LAYER_1
 10
369.8607415688066
 20
570.5085501071752
 30
0.0
  0
VERTEX
  5
61A
  8
LAYER_1
 10
369.7804696812024
 20
570.8575215764442
 30
0.0
  0
VERTEX
  5
61B
  8
LAYER_1
 10
369.7109007119453
 20
571.2104362261573
 30
0.0
  0
VERTEX
  5
61C
  8
LAYER_1
 10
369.6520346610355
 20
571.5672940563138
 30
0.0
  0
VERTEX
  5
61D
  8
LAYER_1
 10
369.603871528473
 20
571.9280950669141
 30
0.0
  0
VERTEX
  5
61E
  8
LAYER_1
 10
369.5664113142576
 20
572.2928392579581
 30
0.0
  0
VERTEX
  5
61F
  8
LAYER_1
 10
369.5396540183895
 20
572.661526629446
 30
0.0
  0
VERTEX
  5
620
  8
LAYER_1
 10
369.5235996408686
 20
573.0341571813775
 30
0.0
  0
VERTEX
  5
621
  8
LAYER_1
 10
369.518248181695
 20
573.4107309137527
 30
0.0
  0
VERTEX
  5
622
  8
LAYER_1
 10
369.5221913621388
 20
573.7382789428433
 30
0.0
  0
VERTEX
  5
623
  8
LAYER_1
 10
369.5340209034699
 20
574.0629752075058
 30
0.0
  0
VERTEX
  5
624
  8
LAYER_1
 10
369.5537368056885
 20
574.3848197077403
 30
0.0
  0
VERTEX
  5
625
  8
LAYER_1
 10
369.5813390687945
 20
574.7038124435467
 30
0.0
  0
VERTEX
  5
626
  8
LAYER_1
 10
369.616827692788
 20
575.019953414925
 30
0.0
  0
VERTEX
  5
627
  8
LAYER_1
 10
369.6602026776689
 20
575.3332426218752
 30
0.0
  0
VERTEX
  5
628
  8
LAYER_1
 10
369.7114640234373
 20
575.6436800643976
 30
0.0
  0
VERTEX
  5
629
  8
LAYER_1
 10
369.770611730093
 20
575.9512657424918
 30
0.0
  0
VERTEX
  5
62A
  8
LAYER_1
 10
369.8376457976362
 20
576.2559996561581
 30
0.0
  0
VERTEX
  5
62B
  8
LAYER_1
 10
369.9125662260669
 20
576.5578818053962
 30
0.0
  0
VERTEX
  5
62C
  8
LAYER_1
 10
369.995373015385
 20
576.8569121902062
 30
0.0
  0
VERTEX
  5
62D
  8
LAYER_1
 10
370.0860661655905
 20
577.1530908105883
 30
0.0
  0
VERTEX
  5
62E
  8
LAYER_1
 10
370.1846456766835
 20
577.4464176665422
 30
0.0
  0
VERTEX
  5
62F
  8
LAYER_1
 10
370.2911115486639
 20
577.736892758068
 30
0.0
  0
VERTEX
  5
630
  8
LAYER_1
 10
370.4054637815319
 20
578.024516085166
 30
0.0
  0
VERTEX
  5
631
  8
LAYER_1
 10
370.5277023752872
 20
578.3092876478358
 30
0.0
  0
VERTEX
  5
632
  8
LAYER_1
 10
370.6578273299299
 20
578.5912074460776
 30
0.0
  0
VERTEX
  5
633
  8
LAYER_1
 10
370.7958386454601
 20
578.8702754798913
 30
0.0
  0
VERTEX
  5
634
  8
LAYER_1
 10
370.9417363218777
 20
579.1464917492772
 30
0.0
  0
VERTEX
  5
635
  8
LAYER_1
 10
371.0955203591827
 20
579.4198562542348
 30
0.0
  0
VERTEX
  5
636
  8
LAYER_1
 10
371.2571907573753
 20
579.6903689947644
 30
0.0
  0
VERTEX
  5
637
  8
LAYER_1
 10
371.4267475164552
 20
579.9580299708659
 30
0.0
  0
VERTEX
  5
638
  8
LAYER_1
 10
371.6041906364226
 20
580.2228391825395
 30
0.0
  0
VERTEX
  5
639
  8
LAYER_1
 10
371.7895201172773
 20
580.484796629785
 30
0.0
  0
VERTEX
  5
63A
  8
LAYER_1
 10
371.9827359590196
 20
580.7439023126026
 30
0.0
  0
VERTEX
  5
63B
  8
LAYER_1
 10
372.1838381616492
 20
581.0001562309918
 30
0.0
  0
VERTEX
  5
63C
  8
LAYER_1
 10
372.3928267251663
 20
581.2535583849532
 30
0.0
  0
VERTEX
  5
63D
  8
LAYER_1
 10
372.6097016495709
 20
581.5041087744864
 30
0.0
  0
VERTEX
  5
63E
  8
LAYER_1
 10
372.8344629348629
 20
581.7518073995917
 30
0.0
  0
VERTEX
  5
63F
  8
LAYER_1
 10
373.0671105810424
 20
581.9966542602689
 30
0.0
  0
VERTEX
  5
640
  8
LAYER_1
 10
373.3076445881093
 20
582.2386493565182
 30
0.0
  0
VERTEX
  5
641
  8
LAYER_1
 10
373.5560649560636
 20
582.4777926883392
 30
0.0
  0
VERTEX
  5
642
  8
LAYER_1
 10
373.8105761295246
 20
582.7117958027961
 30
0.0
  0
VERTEX
  5
643
  8
LAYER_1
 10
374.069382553112
 20
582.9383702469529
 30
0.0
  0
VERTEX
  5
644
  8
LAYER_1
 10
374.3324842268255
 20
583.1575160208095
 30
0.0
  0
VERTEX
  5
645
  8
LAYER_1
 10
374.5998811506652
 20
583.3692331243658
 30
0.0
  0
VERTEX
  5
646
  8
LAYER_1
 10
374.8715733246311
 20
583.5735215576219
 30
0.0
  0
VERTEX
  5
647
  8
LAYER_1
 10
375.1475607487232
 20
583.7703813205777
 30
0.0
  0
VERTEX
  5
648
  8
LAYER_1
 10
375.4278434229416
 20
583.9598124132333
 30
0.0
  0
VERTEX
  5
649
  8
LAYER_1
 10
375.7124213472861
 20
584.1418148355888
 30
0.0
  0
VERTEX
  5
64A
  8
LAYER_1
 10
376.0012945217567
 20
584.316388587644
 30
0.0
  0
VERTEX
  5
64B
  8
LAYER_1
 10
376.2944629463536
 20
584.4835336693989
 30
0.0
  0
VERTEX
  5
64C
  8
LAYER_1
 10
376.5919266210766
 20
584.6432500808537
 30
0.0
  0
VERTEX
  5
64D
  8
LAYER_1
 10
376.8936855459259
 20
584.7955378220081
 30
0.0
  0
VERTEX
  5
64E
  8
LAYER_1
 10
377.1997397209013
 20
584.9403968928625
 30
0.0
  0
VERTEX
  5
64F
  8
LAYER_1
 10
377.510089146003
 20
585.0778272934166
 30
0.0
  0
VERTEX
  5
650
  8
LAYER_1
 10
377.8247338212308
 20
585.2078290236705
 30
0.0
  0
VERTEX
  5
651
  8
LAYER_1
 10
378.143673746585
 20
585.3304020836241
 30
0.0
  0
VERTEX
  5
652
  8
LAYER_1
 10
378.4669089220652
 20
585.4455464732775
 30
0.0
  0
VERTEX
  5
653
  8
LAYER_1
 10
378.7944393476716
 20
585.5532621926308
 30
0.0
  0
VERTEX
  5
654
  8
LAYER_1
 10
379.1262650234042
 20
585.6535492416838
 30
0.0
  0
VERTEX
  5
655
  8
LAYER_1
 10
379.4623859492631
 20
585.7464076204366
 30
0.0
  0
VERTEX
  5
656
  8
LAYER_1
 10
379.8028021252481
 20
585.8318373288892
 30
0.0
  0
VERTEX
  5
657
  8
LAYER_1
 10
380.1475135513593
 20
585.9098383670414
 30
0.0
  0
VERTEX
  5
658
  8
LAYER_1
 10
380.4965202275968
 20
585.9804107348934
 30
0.0
  0
VERTEX
  5
659
  8
LAYER_1
 10
380.8498221539604
 20
586.0435544324454
 30
0.0
  0
VERTEX
  5
65A
  8
LAYER_1
 10
381.2074193304501
 20
586.0992694596971
 30
0.0
  0
VERTEX
  5
65B
  8
LAYER_1
 10
381.5693117570661
 20
586.1475558166485
 30
0.0
  0
VERTEX
  5
65C
  8
LAYER_1
 10
381.9354994338082
 20
586.1884135032997
 30
0.0
  0
VERTEX
  5
65D
  8
LAYER_1
 10
382.3059823606766
 20
586.2218425196506
 30
0.0
  0
VERTEX
  5
65E
  8
LAYER_1
 10
382.6807605376712
 20
586.2478428657014
 30
0.0
  0
VERTEX
  5
65F
  8
LAYER_1
 10
383.0598339647919
 20
586.2664145414519
 30
0.0
  0
VERTEX
  5
660
  8
LAYER_1
 10
383.4432026420389
 20
586.2775575469022
 30
0.0
  0
VERTEX
  5
661
  8
LAYER_1
 10
383.8308665694121
 20
586.2812718820524
 30
0.0
  0
VERTEX
  5
662
  8
LAYER_1
 10
384.3193984608143
 20
586.273808004784
 30
0.0
  0
VERTEX
  5
663
  8
LAYER_1
 10
384.8115918769142
 20
586.2514163729785
 30
0.0
  0
VERTEX
  5
664
  8
LAYER_1
 10
385.3074468177119
 20
586.2140969866362
 30
0.0
  0
VERTEX
  5
665
  8
LAYER_1
 10
385.8069632832074
 20
586.1618498457568
 30
0.0
  0
VERTEX
  5
666
  8
LAYER_1
 10
386.3101412734005
 20
586.0946749503407
 30
0.0
  0
VERTEX
  5
667
  8
LAYER_1
 10
386.8169807882915
 20
586.0125723003875
 30
0.0
  0
VERTEX
  5
668
  8
LAYER_1
 10
387.3274818278801
 20
585.9155418958976
 30
0.0
  0
VERTEX
  5
669
  8
LAYER_1
 10
387.8416443921665
 20
585.8035837368705
 30
0.0
  0
VERTEX
  5
66A
  8
LAYER_1
 10
388.3594684811506
 20
585.6766978233065
 30
0.0
  0
VERTEX
  5
66B
  8
LAYER_1
 10
388.8809540948325
 20
585.5348841552056
 30
0.0
  0
VERTEX
  5
66C
  8
LAYER_1
 10
389.4061012332121
 20
585.3781427325678
 30
0.0
  0
VERTEX
  5
66D
  8
LAYER_1
 10
389.9349098962895
 20
585.2064735553929
 30
0.0
  0
VERTEX
  5
66E
  8
LAYER_1
 10
390.4673800840645
 20
585.0198766236813
 30
0.0
  0
VERTEX
  5
66F
  8
LAYER_1
 10
391.0035117965374
 20
584.8183519374327
 30
0.0
  0
VERTEX
  5
670
  8
LAYER_1
 10
391.543305033708
 20
584.6018994966471
 30
0.0
  0
VERTEX
  5
671
  8
LAYER_1
 10
392.0867597955763
 20
584.3705193013244
 30
0.0
  0
VERTEX
  5
672
  8
LAYER_1
 10
392.5728976131378
 20
584.1592774918395
 30
0.0
  0
VERTEX
  5
673
  8
LAYER_1
 10
393.0218568722298
 20
583.9762012569524
 30
0.0
  0
VERTEX
  5
674
  8
LAYER_1
 10
393.4336375728525
 20
583.8212905966635
 30
0.0
  0
VERTEX
  5
675
  8
LAYER_1
 10
393.8082397150058
 20
583.6945455109725
 30
0.0
  0
VERTEX
  5
676
  8
LAYER_1
 10
394.1456632986898
 20
583.5959659998796
 30
0.0
  0
VERTEX
  5
677
  8
LAYER_1
 10
394.4459083239044
 20
583.5255520633846
 30
0.0
  0
VERTEX
  5
678
  8
LAYER_1
 10
394.7089747906497
 20
583.4833037014876
 30
0.0
  0
VERTEX
  5
679
  8
LAYER_1
 10
394.9348626989255
 20
583.4692209141886
 30
0.0
  0
VERTEX
  5
67A
  8
LAYER_1
 10
395.1638488204072
 20
583.477952242314
 30
0.0
  0
VERTEX
  5
67B
  8
LAYER_1
 10
395.3821320235417
 20
583.5041462266902
 30
0.0
  0
VERTEX
  5
67C
  8
LAYER_1
 10
395.5897123083289
 20
583.5478028673172
 30
0.0
  0
VERTEX
  5
67D
  8
LAYER_1
 10
395.7865896747689
 20
583.6089221641946
 30
0.0
  0
VERTEX
  5
67E
  8
LAYER_1
 10
395.9727641228617
 20
583.6875041173232
 30
0.0
  0
VERTEX
  5
67F
  8
LAYER_1
 10
396.1482356526072
 20
583.7835487267023
 30
0.0
  0
VERTEX
  5
680
  8
LAYER_1
 10
396.3130042640054
 20
583.8970559923323
 30
0.0
  0
VERTEX
  5
681
  8
LAYER_1
 10
396.4670699570565
 20
584.0280259142128
 30
0.0
  0
VERTEX
  5
682
  8
LAYER_1
 10
396.6121226662361
 20
584.1854714762155
 30
0.0
  0
VERTEX
  5
683
  8
LAYER_1
 10
396.7498523260203
 20
584.3784056622118
 30
0.0
  0
VERTEX
  5
684
  8
LAYER_1
 10
396.8802589364091
 20
584.6068284722016
 30
0.0
  0
VERTEX
  5
685
  8
LAYER_1
 10
397.0033424974023
 20
584.8707399061848
 30
0.0
  0
VERTEX
  5
686
  8
LAYER_1
 10
397.119103009
 20
585.1701399641615
 30
0.0
  0
VERTEX
  5
687
  8
LAYER_1
 10
397.2275404712023
 20
585.5050286461317
 30
0.0
  0
VERTEX
  5
688
  8
LAYER_1
 10
397.3286548840091
 20
585.8754059520953
 30
0.0
  0
VERTEX
  5
689
  8
LAYER_1
 10
397.4224462474205
 20
586.2812718820524
 30
0.0
  0
SEQEND
  5
A91
  8
LAYER_1
  0
POLYLINE
  5
79
  8
LAYER_1
 66
     1
 10
0.0
 20
0.0
 30
0.0
 70
     1
  0
VERTEX
  5
68A
  8
LAYER_1
 10
416.6741797966419
 20
587.5430896240425
 30
0.0
  0
VERTEX
  5
68B
  8
LAYER_1
 10
416.861692109528
 20
587.5389352017894
 30
0.0
  0
VERTEX
  5
68C
  8
LAYER_1
 10
417.0456837255894
 20
587.5264719350297
 30
0.0
  0
VERTEX
  5
68D
  8
LAYER_1
 10
417.226154644826
 20
587.5056998237637
 30
0.0
  0
VERTEX
  5
68E
  8
LAYER_1
 10
417.4031048672379
 20
587.4766188679912
 30
0.0
  0
VERTEX
  5
68F
  8
LAYER_1
 10
417.5765343928251
 20
587.4392290677124
 30
0.0
  0
VERTEX
  5
690
  8
LAYER_1
 10
417.7464432215875
 20
587.3935304229271
 30
0.0
  0
VERTEX
  5
691
  8
LAYER_1
 10
417.9128313535251
 20
587.3395229336356
 30
0.0
  0
VERTEX
  5
692
  8
LAYER_1
 10
418.0756987886381
 20
587.2772065998374
 30
0.0
  0
VERTEX
  5
693
  8
LAYER_1
 10
418.2350455269262
 20
587.206581421533
 30
0.0
  0
VERTEX
  5
694
  8
LAYER_1
 10
418.3908715683896
 20
587.127647398722
 30
0.0
  0
VERTEX
  5
695
  8
LAYER_1
 10
418.5431769130282
 20
587.0404045314049
 30
0.0
  0
VERTEX
  5
696
  8
LAYER_1
 10
418.6919615608422
 20
586.9448528195811
 30
0.0
  0
VERTEX
  5
697
  8
LAYER_1
 10
418.8372255118313
 20
586.8409922632511
 30
0.0
  0
VERTEX
  5
698
  8
LAYER_1
 10
418.9789687659957
 20
586.7288228624145
 30
0.0
  0
VERTEX
  5
699
  8
LAYER_1
 10
419.1171913233354
 20
586.6083446170716
 30
0.0
  0
VERTEX
  5
69A
  8
LAYER_1
 10
419.2518931838503
 20
586.4795575272223
 30
0.0
  0
VERTEX
  5
69B
  8
LAYER_1
 10
419.3806802736997
 20
586.3448556667074
 30
0.0
  0
VERTEX
  5
69C
  8
LAYER_1
 10
419.5011585190425
 20
586.2066331093677
 30
0.0
  0
VERTEX
  5
69D
  8
LAYER_1
 10
419.6133279198791
 20
586.0648898552033
 30
0.0
  0
VERTEX
  5
69E
  8
LAYER_1
 10
419.7171884762091
 20
585.9196259042142
 30
0.0
  0
VERTEX
  5
69F
  8
LAYER_1
 10
419.8127401880329
 20
585.7708412564002
 30
0.0
  0
VERTEX
  5
6A0
  8
LAYER_1
 10
419.8999830553501
 20
585.6185359117615
 30
0.0
  0
VERTEX
  5
6A1
  8
LAYER_1
 10
419.978917078161
 20
585.4627098702981
 30
0.0
  0
VERTEX
  5
6A2
  8
LAYER_1
 10
420.0495422564655
 20
585.30336313201
 30
0.0
  0
VERTEX
  5
6A3
  8
LAYER_1
 10
420.1118585902636
 20
585.1404956968971
 30
0.0
  0
VERTEX
  5
6A4
  8
LAYER_1
 10
420.1658660795553
 20
584.9741075649595
 30
0.0
  0
VERTEX
  5
6A5
  8
LAYER_1
 10
420.2115647243405
 20
584.8041987361971
 30
0.0
  0
VERTEX
  5
6A6
  8
LAYER_1
 10
420.2489545246193
 20
584.63076921061
 30
0.0
  0
VERTEX
  5
6A7
  8
LAYER_1
 10
420.2780354803918
 20
584.453818988198
 30
0.0
  0
VERTEX
  5
6A8
  8
LAYER_1
 10
420.2988075916578
 20
584.2733480689612
 30
0.0
  0
VERTEX
  5
6A9
  8
LAYER_1
 10
420.3112708584174
 20
584.0893564528999
 30
0.0
  0
VERTEX
  5
6AA
  8
LAYER_1
 10
420.3154252806706
 20
583.9018441400137
 30
0.0
  0
VERTEX
  5
6AB
  8
LAYER_1
 10
420.3112708584174
 20
583.714261413191
 30
0.0
  0
VERTEX
  5
6AC
  8
LAYER_1
 10
420.2988075916578
 20
583.5300585553202
 30
0.0
  0
VERTEX
  5
6AD
  8
LAYER_1
 10
420.2780354803918
 20
583.3492355664011
 30
0.0
  0
VERTEX
  5
6AE
  8
LAYER_1
 10
420.2489545246193
 20
583.1717924464338
 30
0.0
  0
VERTEX
  5
6AF
  8
LAYER_1
 10
420.2115647243405
 20
582.9977291954181
 30
0.0
  0
VERTEX
  5
6B0
  8
LAYER_1
 10
420.1658660795553
 20
582.8270458133543
 30
0.0
  0
VERTEX
  5
6B1
  8
LAYER_1
 10
420.1118585902636
 20
582.6597423002422
 30
0.0
  0
VERTEX
  5
6B2
  8
LAYER_1
 10
420.0495422564655
 20
582.4958186560818
 30
0.0
  0
VERTEX
  5
6B3
  8
LAYER_1
 10
419.978917078161
 20
582.3352748808733
 30
0.0
  0
VERTEX
  5
6B4
  8
LAYER_1
 10
419.8999830553501
 20
582.1781109746164
 30
0.0
  0
VERTEX
  5
6B5
  8
LAYER_1
 10
419.8127401880329
 20
582.0243269373113
 30
0.0
  0
VERTEX
  5
6B6
  8
LAYER_1
 10
419.7171884762091
 20
581.8739227689581
 30
0.0
  0
VERTEX
  5
6B7
  8
LAYER_1
 10
419.6133279198791
 20
581.7268984695567
 30
0.0
  0
VERTEX
  5
6B8
  8
LAYER_1
 10
419.5011585190425
 20
581.5832540391068
 30
0.0
  0
VERTEX
  5
6B9
  8
LAYER_1
 10
419.3806802736997
 20
581.4429894776088
 30
0.0
  0
VERTEX
  5
6BA
  8
LAYER_1
 10
419.2518931838503
 20
581.3061047850625
 30
0.0
  0
VERTEX
  5
6BB
  8
LAYER_1
 10
419.1171913233354
 20
581.1751348631819
 30
0.0
  0
VERTEX
  5
6BC
  8
LAYER_1
 10
418.9789687659957
 20
581.0526146136806
 30
0.0
  0
VERTEX
  5
6BD
  8
LAYER_1
 10
418.8372255118313
 20
580.9385440365588
 30
0.0
  0
VERTEX
  5
6BE
  8
LAYER_1
 10
418.6919615608422
 20
580.8329231318162
 30
0.0
  0
VERTEX
  5
6BF
  8
LAYER_1
 10
418.5431769130282
 20
580.7357518994531
 30
0.0
  0
VERTEX
  5
6C0
  8
LAYER_1
 10
418.3908715683896
 20
580.6470303394694
 30
0.0
  0
VERTEX
  5
6C1
  8
LAYER_1
 10
418.2350455269262
 20
580.5667584518652
 30
0.0
  0
VERTEX
  5
6C2
  8
LAYER_1
 10
418.0756987886381
 20
580.4949362366403
 30
0.0
  0
VERTEX
  5
6C3
  8
LAYER_1
 10
417.9128313535251
 20
580.4315636937949
 30
0.0
  0
VERTEX
  5
6C4
  8
LAYER_1
 10
417.7464432215875
 20
580.3766408233287
 30
0.0
  0
VERTEX
  5
6C5
  8
LAYER_1
 10
417.5765343928251
 20
580.330167625242
 30
0.0
  0
VERTEX
  5
6C6
  8
LAYER_1
 10
417.4031048672379
 20
580.2921440995347
 30
0.0
  0
VERTEX
  5
6C7
  8
LAYER_1
 10
417.226154644826
 20
580.2625702462069
 30
0.0
  0
VERTEX
  5
6C8
  8
LAYER_1
 10
417.0456837255894
 20
580.2414460652584
 30
0.0
  0
VERTEX
  5
6C9
  8
LAYER_1
 10
416.861692109528
 20
580.2287715566894
 30
0.0
  0
VERTEX
  5
6CA
  8
LAYER_1
 10
416.6741797966419
 20
580.2245467204996
 30
0.0
  0
VERTEX
  5
6CB
  8
LAYER_1
 10
416.4865970698193
 20
580.2287715566894
 30
0.0
  0
VERTEX
  5
6CC
  8
LAYER_1
 10
416.3023942119484
 20
580.2414460652584
 30
0.0
  0
VERTEX
  5
6CD
  8
LAYER_1
 10
416.1215712230292
 20
580.2625702462069
 30
0.0
  0
VERTEX
  5
6CE
  8
LAYER_1
 10
415.9441281030618
 20
580.2921440995347
 30
0.0
  0
VERTEX
  5
6CF
  8
LAYER_1
 10
415.7700648520462
 20
580.330167625242
 30
0.0
  0
VERTEX
  5
6D0
  8
LAYER_1
 10
415.5993814699823
 20
580.3766408233287
 30
0.0
  0
VERTEX
  5
6D1
  8
LAYER_1
 10
415.4320779568703
 20
580.4315636937949
 30
0.0
  0
VERTEX
  5
6D2
  8
LAYER_1
 10
415.26815431271
 20
580.4949362366403
 30
0.0
  0
VERTEX
  5
6D3
  8
LAYER_1
 10
415.1076105375014
 20
580.5667584518652
 30
0.0
  0
VERTEX
  5
6D4
  8
LAYER_1
 10
414.9504466312446
 20
580.6470303394694
 30
0.0
  0
VERTEX
  5
6D5
  8
LAYER_1
 10
414.7966625939396
 20
580.7357518994531
 30
0.0
  0
VERTEX
  5
6D6
  8
LAYER_1
 10
414.6462584255862
 20
580.8329231318162
 30
0.0
  0
VERTEX
  5
6D7
  8
LAYER_1
 10
414.4992341261847
 20
580.9385440365588
 30
0.0
  0
VERTEX
  5
6D8
  8
LAYER_1
 10
414.3555896957349
 20
581.0526146136806
 30
0.0
  0
VERTEX
  5
6D9
  8
LAYER_1
 10
414.2153251342369
 20
581.1751348631819
 30
0.0
  0
VERTEX
  5
6DA
  8
LAYER_1
 10
414.0784404416906
 20
581.3061047850625
 30
0.0
  0
VERTEX
  5
6DB
  8
LAYER_1
 10
413.9474705198099
 20
581.4429894776088
 30
0.0
  0
VERTEX
  5
6DC
  8
LAYER_1
 10
413.8249502703087
 20
581.5832540391068
 30
0.0
  0
VERTEX
  5
6DD
  8
LAYER_1
 10
413.7108796931868
 20
581.7268984695567
 30
0.0
  0
VERTEX
  5
6DE
  8
LAYER_1
 10
413.6052587884443
 20
581.8739227689581
 30
0.0
  0
VERTEX
  5
6DF
  8
LAYER_1
 10
413.5080875560813
 20
582.0243269373113
 30
0.0
  0
VERTEX
  5
6E0
  8
LAYER_1
 10
413.4193659960976
 20
582.1781109746164
 30
0.0
  0
VERTEX
  5
6E1
  8
LAYER_1
 10
413.3390941084933
 20
582.3352748808733
 30
0.0
  0
VERTEX
  5
6E2
  8
LAYER_1
 10
413.2672718932684
 20
582.4958186560818
 30
0.0
  0
VERTEX
  5
6E3
  8
LAYER_1
 10
413.2038993504229
 20
582.6597423002422
 30
0.0
  0
VERTEX
  5
6E4
  8
LAYER_1
 10
413.1489764799568
 20
582.8270458133543
 30
0.0
  0
VERTEX
  5
6E5
  8
LAYER_1
 10
413.1025032818702
 20
582.9977291954181
 30
0.0
  0
VERTEX
  5
6E6
  8
LAYER_1
 10
413.0644797561628
 20
583.1717924464338
 30
0.0
  0
VERTEX
  5
6E7
  8
LAYER_1
 10
413.0349059028349
 20
583.3492355664011
 30
0.0
  0
VERTEX
  5
6E8
  8
LAYER_1
 10
413.0137817218864
 20
583.5300585553202
 30
0.0
  0
VERTEX
  5
6E9
  8
LAYER_1
 10
413.0011072133173
 20
583.714261413191
 30
0.0
  0
VERTEX
  5
6EA
  8
LAYER_1
 10
412.9968823771276
 20
583.9018441400137
 30
0.0
  0
VERTEX
  5
6EB
  8
LAYER_1
 10
413.0010367993808
 20
584.0893564528999
 30
0.0
  0
VERTEX
  5
6EC
  8
LAYER_1
 10
413.0135000661404
 20
584.2733480689612
 30
0.0
  0
VERTEX
  5
6ED
  8
LAYER_1
 10
413.0342721774064
 20
584.453818988198
 30
0.0
  0
VERTEX
  5
6EE
  8
LAYER_1
 10
413.0633531331789
 20
584.63076921061
 30
0.0
  0
VERTEX
  5
6EF
  8
LAYER_1
 10
413.1007429334577
 20
584.8041987361971
 30
0.0
  0
VERTEX
  5
6F0
  8
LAYER_1
 10
413.146441578243
 20
584.9741075649595
 30
0.0
  0
VERTEX
  5
6F1
  8
LAYER_1
 10
413.2004490675346
 20
585.1404956968971
 30
0.0
  0
VERTEX
  5
6F2
  8
LAYER_1
 10
413.2627654013327
 20
585.30336313201
 30
0.0
  0
VERTEX
  5
6F3
  8
LAYER_1
 10
413.3333905796372
 20
585.4627098702981
 30
0.0
  0
VERTEX
  5
6F4
  8
LAYER_1
 10
413.4123246024481
 20
585.6185359117615
 30
0.0
  0
VERTEX
  5
6F5
  8
LAYER_1
 10
413.4995674697653
 20
585.7708412564002
 30
0.0
  0
VERTEX
  5
6F6
  8
LAYER_1
 10
413.5951191815891
 20
585.9196259042142
 30
0.0
  0
VERTEX
  5
6F7
  8
LAYER_1
 10
413.6989797379191
 20
586.0648898552033
 30
0.0
  0
VERTEX
  5
6F8
  8
LAYER_1
 10
413.8111491387557
 20
586.2066331093677
 30
0.0
  0
VERTEX
  5
6F9
  8
LAYER_1
 10
413.9316273840985
 20
586.3448556667074
 30
0.0
  0
VERTEX
  5
6FA
  8
LAYER_1
 10
414.0604144739479
 20
586.4795575272223
 30
0.0
  0
VERTEX
  5
6FB
  8
LAYER_1
 10
414.1952571623358
 20
586.6083446170716
 30
0.0
  0
VERTEX
  5
6FC
  8
LAYER_1
 10
414.3339022032944
 20
586.7288228624145
 30
0.0
  0
VERTEX
  5
6FD
  8
LAYER_1
 10
414.4763495968238
 20
586.8409922632511
 30
0.0
  0
VERTEX
  5
6FE
  8
LAYER_1
 10
414.6225993429239
 20
586.9448528195811
 30
0.0
  0
VERTEX
  5
6FF
  8
LAYER_1
 10
414.7726514415947
 20
587.0404045314049
 30
0.0
  0
VERTEX
  5
700
  8
LAYER_1
 10
414.9265058928362
 20
587.127647398722
 30
0.0
  0
VERTEX
  5
701
  8
LAYER_1
 10
415.0841626966485
 20
587.206581421533
 30
0.0
  0
VERTEX
  5
702
  8
LAYER_1
 10
415.2456218530315
 20
587.2772065998374
 30
0.0
  0
VERTEX
  5
703
  8
LAYER_1
 10
415.4108833619853
 20
587.3395229336356
 30
0.0
  0
VERTEX
  5
704
  8
LAYER_1
 10
415.5799472235097
 20
587.3935304229271
 30
0.0
  0
VERTEX
  5
705
  8
LAYER_1
 10
415.7528134376049
 20
587.4392290677124
 30
0.0
  0
VERTEX
  5
706
  8
LAYER_1
 10
415.9294820042709
 20
587.4766188679912
 30
0.0
  0
VERTEX
  5
707
  8
LAYER_1
 10
416.1099529235075
 20
587.5056998237637
 30
0.0
  0
VERTEX
  5
708
  8
LAYER_1
 10
416.2942261953149
 20
587.5264719350297
 30
0.0
  0
VERTEX
  5
709
  8
LAYER_1
 10
416.482301819693
 20
587.5389352017894
 30
0.0
  0
SEQEND
  5
A92
  8
LAYER_1
  0
POLYLINE
  5
7A
  8
LAYER_1
 66
     1
 10
0.0
 20
0.0
 30
0.0
 70
     1
  0
VERTEX
  5
70A
  8
LAYER_1
 10
419.6664904419328
 20
570.2742125265199
 30
0.0
  0
VERTEX
  5
70B
  8
LAYER_1
 10
419.6664904419328
 20
543.739988009241
 30
0.0
  0
VERTEX
  5
70C
  8
LAYER_1
 10
419.6735318355823
 20
542.997261807092
 30
0.0
  0
VERTEX
  5
70D
  8
LAYER_1
 10
419.6946560165308
 20
542.3193164265182
 30
0.0
  0
VERTEX
  5
70E
  8
LAYER_1
 10
419.7298629847783
 20
541.7061518675198
 30
0.0
  0
VERTEX
  5
70F
  8
LAYER_1
 10
419.7791527403248
 20
541.1577681300969
 30
0.0
  0
VERTEX
  5
710
  8
LAYER_1
 10
419.8425252831703
 20
540.6741652142493
 30
0.0
  0
VERTEX
  5
711
  8
LAYER_1
 10
419.9199806133148
 20
540.255343119977
 30
0.0
  0
VERTEX
  5
712
  8
LAYER_1
 10
420.0115187307583
 20
539.9013018472803
 30
0.0
  0
VERTEX
  5
713
  8
LAYER_1
 10
420.0625688347171
 20
539.7485740190226
 30
0.0
  0
VERTEX
  5
714
  8
LAYER_1
 10
420.1171396355007
 20
539.6120413961588
 30
0.0
  0
VERTEX
  5
715
  8
LAYER_1
 10
420.2365616717962
 20
539.3633393724584
 30
0.0
  0
VERTEX
  5
716
  8
LAYER_1
 10
420.3695031838987
 20
539.130973382025
 30
0.0
  0
VERTEX
  5
717
  8
LAYER_1
 10
420.5159641718083
 20
538.9149434248584
 30
0.0
  0
VERTEX
  5
718
  8
LAYER_1
 10
420.675944635525
 20
538.7152495009586
 30
0.0
  0
VERTEX
  5
719
  8
LAYER_1
 10
420.8494445750486
 20
538.5318916103256
 30
0.0
  0
VERTEX
  5
71A
  8
LAYER_1
 10
421.0364639903793
 20
538.3648697529595
 30
0.0
  0
VERTEX
  5
71B
  8
LAYER_1
 10
421.237002881517
 20
538.2141839288604
 30
0.0
  0
VERTEX
  5
71C
  8
LAYER_1
 10
421.4510612484618
 20
538.079834138028
 30
0.0
  0
VERTEX
  5
71D
  8
LAYER_1
 10
421.567173829742
 20
538.0187148411503
 30
0.0
  0
VERTEX
  5
71E
  8
LAYER_1
 10
421.6946934687344
 20
537.9615387247165
 30
0.0
  0
VERTEX
  5
71F
  8
LAYER_1
 10
421.8336201654391
 20
537.9083057887262
 30
0.0
  0
VERTEX
  5
720
  8
LAYER_1
 10
421.9839539198558
 20
537.8590160331797
 30
0.0
  0
VERTEX
  5
721
  8
LAYER_1
 10
422.318842601826
 20
537.7722660634179
 30
0.0
  0
VERTEX
  5
722
  8
LAYER_1
 10
422.6993595146449
 20
537.7012888154309
 30
0.0
  0
VERTEX
  5
723
  8
LAYER_1
 10
423.1255046583126
 20
537.6460842892188
 30
0.0
  0
VERTEX
  5
724
  8
LAYER_1
 10
423.597278032829
 20
537.6066524847815
 30
0.0
  0
VERTEX
  5
725
  8
LAYER_1
 10
424.1146796381942
 20
537.5829934021193
 30
0.0
  0
VERTEX
  5
726
  8
LAYER_1
 10
424.6777094744081
 20
537.5751070412318
 30
0.0
  0
VERTEX
  5
727
  8
LAYER_1
 10
424.6777094744081
 20
536.2772373637563
 30
0.0
  0
VERTEX
  5
728
  8
LAYER_1
 10
408.6345981833902
 20
536.2772373637563
 30
0.0
  0
VERTEX
  5
729
  8
LAYER_1
 10
408.6345981833902
 20
537.5751070412318
 30
0.0
  0
VERTEX
  5
72A
  8
LAYER_1
 10
409.213682397125
 20
537.5824300906272
 30
0.0
  0
VERTEX
  5
72B
  8
LAYER_1
 10
409.7431951995673
 20
537.6043992388138
 30
0.0
  0
VERTEX
  5
72C
  8
LAYER_1
 10
410.2231365907171
 20
537.6410144857912
 30
0.0
  0
VERTEX
  5
72D
  8
LAYER_1
 10
410.6535065705745
 20
537.6922758315595
 30
0.0
  0
VERTEX
  5
72E
  8
LAYER_1
 10
411.0343051391394
 20
537.7581832761189
 30
0.0
  0
VERTEX
  5
72F
  8
LAYER_1
 10
411.3655322964117
 20
537.8387368194691
 30
0.0
  0
VERTEX
  5
730
  8
LAYER_1
 10
411.6471880423917
 20
537.9339364616103
 30
0.0
  0
VERTEX
  5
731
  8
LAYER_1
 10
411.7694266361469
 20
537.9870285697275
 30
0.0
  0
VERTEX
  5
732
  8
LAYER_1
 10
411.8792723770792
 20
538.0437822025425
 30
0.0
  0
VERTEX
  5
733
  8
LAYER_1
 10
412.0812195469468
 20
538.1705272882335
 30
0.0
  0
VERTEX
  5
734
  8
LAYER_1
 10
412.2724637984672
 20
538.3164249646511
 30
0.0
  0
VERTEX
  5
735
  8
LAYER_1
 10
412.4530051316403
 20
538.4814752317955
 30
0.0
  0
VERTEX
  5
736
  8
LAYER_1
 10
412.6228435464662
 20
538.6656780896662
 30
0.0
  0
VERTEX
  5
737
  8
LAYER_1
 10
412.781979042945
 20
538.8690335382638
 30
0.0
  0
VERTEX
  5
738
  8
LAYER_1
 10
412.9304116210764
 20
539.0915415775879
 30
0.0
  0
VERTEX
  5
739
  8
LAYER_1
 10
413.0681412808605
 20
539.3332022076387
 30
0.0
  0
VERTEX
  5
73A
  8
LAYER_1
 10
413.1951680222975
 20
539.5940154284161
 30
0.0
  0
VERTEX
  5
73B
  8
LAYER_1
 10
413.2541044871439
 20
539.736955719501
 30
0.0
  0
VERTEX
  5
73C
  8
LAYER_1
 10
413.3092385994195
 20
539.8953870766147
 30
0.0
  0
VERTEX
  5
73D
  8
LAYER_1
 10
413.3605703591243
 20
540.0693094997573
 30
0.0
  0
VERTEX
  5
73E
  8
LAYER_1
 10
413.4080997662584
 20
540.2587229889289
 30
0.0
  0
VERTEX
  5
73F
  8
LAYER_1
 10
413.4917515228144
 20
540.6840231653586
 30
0.0
  0
VERTEX
  5
740
  8
LAYER_1
 10
413.5601938690875
 20
541.1712876059039
 30
0.0
  0
VERTEX
  5
741
  8
LAYER_1
 10
413.6134268050777
 20
541.7205163105648
 30
0.0
  0
VERTEX
  5
742
  8
LAYER_1
 10
413.651450330785
 20
542.3317092793413
 30
0.0
  0
VERTEX
  5
743
  8
LAYER_1
 10
413.6742644462093
 20
543.0048665122333
 30
0.0
  0
VERTEX
  5
744
  8
LAYER_1
 10
413.6818691513508
 20
543.739988009241
 30
0.0
  0
VERTEX
  5
745
  8
LAYER_1
 10
413.6818691513508
 20
556.466321235599
 30
0.0
  0
VERTEX
  5
746
  8
LAYER_1
 10
413.6767993479232
 20
557.7501081257756
 30
0.0
  0
VERTEX
  5
747
  8
LAYER_1
 10
413.6615899376403
 20
558.9155996026407
 30
0.0
  0
VERTEX
  5
748
  8
LAYER_1
 10
413.6362409205021
 20
559.9627956661941
 30
0.0
  0
VERTEX
  5
749
  8
LAYER_1
 10
413.6007522965086
 20
560.8916963164361
 30
0.0
  0
VERTEX
  5
74A
  8
LAYER_1
 10
413.5551240656599
 20
561.7023015533663
 30
0.0
  0
VERTEX
  5
74B
  8
LAYER_1
 10
413.4993562279558
 20
562.394611376985
 30
0.0
  0
VERTEX
  5
74C
  8
LAYER_1
 10
413.4334487833966
 20
562.9686257872921
 30
0.0
  0
VERTEX
  5
74D
  8
LAYER_1
 10
413.357401731982
 20
563.4243447842877
 30
0.0
  0
VERTEX
  5
74E
  8
LAYER_1
 10
413.2898043529468
 20
563.7017756940779
 30
0.0
  0
VERTEX
  5
74F
  8
LAYER_1
 10
413.2131939900402
 20
563.9572374556817
 30
0.0
  0
VERTEX
  5
750
  8
LAYER_1
 10
413.1275706432623
 20
564.1907300690991
 30
0.0
  0
VERTEX
  5
751
  8
LAYER_1
 10
413.0329343126131
 20
564.4022535343299
 30
0.0
  0
VERTEX
  5
752
  8
LAYER_1
 10
412.9292849980924
 20
564.5918078513745
 30
0.0
  0
VERTEX
  5
753
  8
LAYER_1
 10
412.8166226997005
 20
564.7593930202324
 30
0.0
  0
VERTEX
  5
754
  8
LAYER_1
 10
412.6949474174372
 20
564.9050090409041
 30
0.0
  0
VERTEX
  5
755
  8
LAYER_1
 10
412.5642591513025
 20
565.0286559133893
 30
0.0
  0
VERTEX
  5
756
  8
LAYER_1
 10
412.4228679668205
 20
565.1342768181319
 30
0.0
  0
VERTEX
  5
757
  8
LAYER_1
 10
412.2690839295155
 20
565.2258149355754
 30
0.0
  0
VERTEX
  5
758
  8
LAYER_1
 10
412.1029070393873
 20
565.3032702657199
 30
0.0
  0
VERTEX
  5
759
  8
LAYER_1
 10
411.924337296436
 20
565.3666428085654
 30
0.0
  0
VERTEX
  5
75A
  8
LAYER_1
 10
411.7333747006616
 20
565.4159325641119
 30
0.0
  0
VERTEX
  5
75B
  8
LAYER_1
 10
411.5300192520641
 20
565.4511395323594
 30
0.0
  0
VERTEX
  5
75C
  8
LAYER_1
 10
411.3142709506434
 20
565.4722637133078
 30
0.0
  0
VERTEX
  5
75D
  8
LAYER_1
 10
411.0861297963997
 20
565.4793051069573
 30
0.0
  0
VERTEX
  5
75E
  8
LAYER_1
 10
410.8270065100982
 20
565.470855434578
 30
0.0
  0
VERTEX
  5
75F
  8
LAYER_1
 10
410.5543637479896
 20
565.4455064174397
 30
0.0
  0
VERTEX
  5
760
  8
LAYER_1
 10
410.2682015100739
 20
565.4032580555427
 30
0.0
  0
VERTEX
  5
761
  8
LAYER_1
 10
409.9685197963512
 20
565.3441103488869
 30
0.0
  0
VERTEX
  5
762
  8
LAYER_1
 10
409.6553186068215
 20
565.2680632974723
 30
0.0
  0
VERTEX
  5
763
  8
LAYER_1
 10
409.3285979414848
 20
565.1751169012989
 30
0.0
  0
VERTEX
  5
764
  8
LAYER_1
 10
408.988357800341
 20
565.0652711603667
 30
0.0
  0
VERTEX
  5
765
  8
LAYER_1
 10
408.6345981833902
 20
564.9385260746758
 30
0.0
  0
VERTEX
  5
766
  8
LAYER_1
 10
408.1298710865941
 20
566.2363957521515
 30
0.0
  0
VERTEX
  5
767
  8
LAYER_1
 10
418.0802052805738
 20
570.2742125265199
 30
0.0
  0
SEQEND
  5
A93
  8
LAYER_1
  0
POLYLINE
  5
7B
  8
LAYER_1
 66
     1
 10
0.0
 20
0.0
 30
0.0
 70
     1
  0
VERTEX
  5
768
  8
LAYER_1
 10
452.1132323788228
 20
539.9905867187559
 30
0.0
  0
VERTEX
  5
769
  8
LAYER_1
 10
451.5110523939177
 20
539.3819286516932
 30
0.0
  0
VERTEX
  5
76A
  8
LAYER_1
 10
451.211229852322
 20
539.0942877211112
 30
0.0
  0
VERTEX
  5
76B
  8
LAYER_1
 10
450.9122522779643
 20
538.8177721924953
 30
0.0
  0
VERTEX
  5
76C
  8
LAYER_1
 10
450.6141196708445
 20
538.5523820658459
 30
0.0
  0
VERTEX
  5
76D
  8
LAYER_1
 10
450.3168320309627
 20
538.2981173411624
 30
0.0
  0
VERTEX
  5
76E
  8
LAYER_1
 10
450.0203893583188
 20
538.0549780184454
 30
0.0
  0
VERTEX
  5
76F
  8
LAYER_1
 10
449.7247916529128
 20
537.8229640976942
 30
0.0
  0
VERTEX
  5
770
  8
LAYER_1
 10
449.4300389147448
 20
537.6020755789095
 30
0.0
  0
VERTEX
  5
771
  8
LAYER_1
 10
449.1361311438147
 20
537.392312462091
 30
0.0
  0
VERTEX
  5
772
  8
LAYER_1
 10
448.8430683401226
 20
537.1936747472387
 30
0.0
  0
VERTEX
  5
773
  8
LAYER_1
 10
448.5508505036684
 20
537.0061624343523
 30
0.0
  0
VERTEX
  5
774
  8
LAYER_1
 10
448.2594776344522
 20
536.8297755234325
 30
0.0
  0
VERTEX
  5
775
  8
LAYER_1
 10
447.9689497324739
 20
536.6645140144788
 30
0.0
  0
VERTEX
  5
776
  8
LAYER_1
 10
447.6792667977335
 20
536.5103779074911
 30
0.0
  0
VERTEX
  5
777
  8
LAYER_1
 10
447.390428830231
 20
536.3673672024698
 30
0.0
  0
VERTEX
  5
778
  8
LAYER_1
 10
447.1006050676177
 20
536.2342144485577
 30
0.0
  0
VERTEX
  5
779
  8
LAYER_1
 10
446.8079647475445
 20
536.1096521948981
 30
0.0
  0
VERTEX
  5
77A
  8
LAYER_1
 10
446.5125078700115
 20
535.9936804414908
 30
0.0
  0
VERTEX
  5
77B
  8
LAYER_1
 10
446.2142344350188
 20
535.8862991883361
 30
0.0
  0
VERTEX
  5
77C
  8
LAYER_1
 10
445.9131444425662
 20
535.7875084354337
 30
0.0
  0
VERTEX
  5
77D
  8
LAYER_1
 10
445.6092378926539
 20
535.6973081827837
 30
0.0
  0
VERTEX
  5
77E
  8
LAYER_1
 10
445.3025147852817
 20
535.6156984303859
 30
0.0
  0
VERTEX
  5
77F
  8
LAYER_1
 10
444.9929751204497
 20
535.5426791782406
 30
0.0
  0
VERTEX
  5
780
  8
LAYER_1
 10
444.6806188981579
 20
535.4782504263476
 30
0.0
  0
VERTEX
  5
781
  8
LAYER_1
 10
444.3654461184064
 20
535.4224121747071
 30
0.0
  0
VERTEX
  5
782
  8
LAYER_1
 10
444.047456781195
 20
535.3751644233189
 30
0.0
  0
VERTEX
  5
783
  8
LAYER_1
 10
443.7266508865239
 20
535.3365071721832
 30
0.0
  0
VERTEX
  5
784
  8
LAYER_1
 10
443.4030284343929
 20
535.3064404212998
 30
0.0
  0
VERTEX
  5
785
  8
LAYER_1
 10
443.0765894248022
 20
535.2849641706689
 30
0.0
  0
VERTEX
  5
786
  8
LAYER_1
 10
442.7473338577516
 20
535.2720784202903
 30
0.0
  0
VERTEX
  5
787
  8
LAYER_1
 10
442.4152617332413
 20
535.2677831701642
 30
0.0
  0
VERTEX
  5
788
  8
LAYER_1
 10
442.0786127028587
 20
535.2722016446793
 30
0.0
  0
VERTEX
  5
789
  8
LAYER_1
 10
441.7446394020631
 20
535.2854570682243
 30
0.0
  0
VERTEX
  5
78A
  8
LAYER_1
 10
441.4133418308542
 20
535.3075494407997
 30
0.0
  0
VERTEX
  5
78B
  8
LAYER_1
 10
441.084719989232
 20
535.3384787624052
 30
0.0
  0
VERTEX
  5
78C
  8
LAYER_1
 10
440.7587738771967
 20
535.3782450330407
 30
0.0
  0
VERTEX
  5
78D
  8
LAYER_1
 10
440.4355034947482
 20
535.4268482527063
 30
0.0
  0
VERTEX
  5
78E
  8
LAYER_1
 10
440.1149088418865
 20
535.4842884214022
 30
0.0
  0
VERTEX
  5
78F
  8
LAYER_1
 10
439.7969899186117
 20
535.550565539128
 30
0.0
  0
VERTEX
  5
790
  8
LAYER_1
 10
439.4817467249236
 20
535.625679605884
 30
0.0
  0
VERTEX
  5
791
  8
LAYER_1
 10
439.1691792608224
 20
535.7096306216702
 30
0.0
  0
VERTEX
  5
792
  8
LAYER_1
 10
438.859287526308
 20
535.8024185864865
 30
0.0
  0
VERTEX
  5
793
  8
LAYER_1
 10
438.5520715213803
 20
535.9040435003328
 30
0.0
  0
VERTEX
  5
794
  8
LAYER_1
 10
438.2475312460396
 20
536.0145053632094
 30
0.0
  0
VERTEX
  5
795
  8
LAYER_1
 10
437.9456667002855
 20
536.133804175116
 30
0.0
  0
VERTEX
  5
796
  8
LAYER_1
 10
437.6464778841183
 20
536.2619399360528
 30
0.0
  0
VERTEX
  5
797
  8
LAYER_1
 10
437.3499647975379
 20
536.3989126460197
 30
0.0
  0
VERTEX
  5
798
  8
LAYER_1
 10
437.0561274405443
 20
536.5447223050166
 30
0.0
  0
VERTEX
  5
799
  8
LAYER_1
 10
436.7649658131376
 20
536.6993689130437
 30
0.0
  0
VERTEX
  5
79A
  8
LAYER_1
 10
436.4764799153176
 20
536.862852470101
 30
0.0
  0
VERTEX
  5
79B
  8
LAYER_1
 10
436.1906697470844
 20
537.0351729761883
 30
0.0
  0
VERTEX
  5
79C
  8
LAYER_1
 10
435.9075353084381
 20
537.2163304313058
 30
0.0
  0
VERTEX
  5
79D
  8
LAYER_1
 10
435.6270765993785
 20
537.4063248354533
 30
0.0
  0
VERTEX
  5
79E
  8
LAYER_1
 10
435.3492936199058
 20
537.6051561886311
 30
0.0
  0
VERTEX
  5
79F
  8
LAYER_1
 10
435.0741863700199
 20
537.8128244908389
 30
0.0
  0
VERTEX
  5
7A0
  8
LAYER_1
 10
434.8017548497209
 20
538.0293297420769
 30
0.0
  0
VERTEX
  5
7A1
  8
LAYER_1
 10
434.5319990590085
 20
538.2546719423449
 30
0.0
  0
VERTEX
  5
7A2
  8
LAYER_1
 10
434.264918997883
 20
538.4888510916431
 30
0.0
  0
VERTEX
  5
7A3
  8
LAYER_1
 10
434.0005146663443
 20
538.7318671899715
 30
0.0
  0
VERTEX
  5
7A4
  8
LAYER_1
 10
433.7387860643925
 20
538.98372023733
 30
0.0
  0
VERTEX
  5
7A5
  8
LAYER_1
 10
433.4797331920274
 20
539.2444102337184
 30
0.0
  0
VERTEX
  5
7A6
  8
LAYER_1
 10
433.2233560492492
 20
539.5139371791372
 30
0.0
  0
VERTEX
  5
7A7
  8
LAYER_1
 10
432.9696546360577
 20
539.792301073586
 30
0.0
  0
VERTEX
  5
7A8
  8
LAYER_1
 10
432.7212342681034
 20
540.0776007407796
 30
0.0
  0
VERTEX
  5
7A9
  8
LAYER_1
 10
432.4807002610365
 20
540.3679350044326
 30
0.0
  0
VERTEX
  5
7AA
  8
LAYER_1
 10
432.2480526148571
 20
540.6633038645449
 30
0.0
  0
VERTEX
  5
7AB
  8
LAYER_1
 10
432.023291329565
 20
540.9637073211168
 30
0.0
  0
VERTEX
  5
7AC
  8
LAYER_1
 10
431.8064164051605
 20
541.2691453741479
 30
0.0
  0
VERTEX
  5
7AD
  8
LAYER_1
 10
431.5974278416434
 20
541.5796180236384
 30
0.0
  0
VERTEX
  5
7AE
  8
LAYER_1
 10
431.3963256390138
 20
541.8951252695881
 30
0.0
  0
VERTEX
  5
7AF
  8
LAYER_1
 10
431.2031097972715
 20
542.2156671119975
 30
0.0
  0
VERTEX
  5
7B0
  8
LAYER_1
 10
431.0177803164167
 20
542.5412435508662
 30
0.0
  0
VERTEX
  5
7B1
  8
LAYER_1
 10
430.8403371964494
 20
542.8718545861943
 30
0.0
  0
VERTEX
  5
7B2
  8
LAYER_1
 10
430.6707804373694
 20
543.2075002179818
 30
0.0
  0
VERTEX
  5
7B3
  8
LAYER_1
 10
430.5091100391769
 20
543.5481804462287
 30
0.0
  0
VERTEX
  5
7B4
  8
LAYER_1
 10
430.3553260018718
 20
543.893895270935
 30
0.0
  0
VERTEX
  5
7B5
  8
LAYER_1
 10
430.2094283254543
 20
544.2446446921007
 30
0.0
  0
VERTEX
  5
7B6
  8
LAYER_1
 10
430.0714170099241
 20
544.6004287097256
 30
0.0
  0
VERTEX
  5
7B7
  8
LAYER_1
 10
429.9412920552813
 20
544.9612473238101
 30
0.0
  0
VERTEX
  5
7B8
  8
LAYER_1
 10
429.8190534615261
 20
545.3271005343539
 30
0.0
  0
VERTEX
  5
7B9
  8
LAYER_1
 10
429.7047012286581
 20
545.6979883413572
 30
0.0
  0
VERTEX
  5
7BA
  8
LAYER_1
 10
429.5982353566777
 20
546.0739107448198
 30
0.0
  0
VERTEX
  5
7BB
  8
LAYER_1
 10
429.4996558455847
 20
546.4548677447418
 30
0.0
  0
VERTEX
  5
7BC
  8
LAYER_1
 10
429.4089626953792
 20
546.8408593411232
 30
0.0
  0
VERTEX
  5
7BD
  8
LAYER_1
 10
429.3261559060611
 20
547.231885533964
 30
0.0
  0
VERTEX
  5
7BE
  8
LAYER_1
 10
429.2512354776304
 20
547.627946323264
 30
0.0
  0
VERTEX
  5
7BF
  8
LAYER_1
 10
429.1842014100872
 20
548.0290417090237
 30
0.0
  0
VERTEX
  5
7C0
  8
LAYER_1
 10
429.1250537034315
 20
548.4351716912427
 30
0.0
  0
VERTEX
  5
7C1
  8
LAYER_1
 10
429.0737923576631
 20
548.846336269921
 30
0.0
  0
VERTEX
  5
7C2
  8
LAYER_1
 10
429.0304173727822
 20
549.2625354450588
 30
0.0
  0
VERTEX
  5
7C3
  8
LAYER_1
 10
428.9949287487887
 20
549.683769216656
 30
0.0
  0
VERTEX
  5
7C4
  8
LAYER_1
 10
428.9673264856827
 20
550.1100375847124
 30
0.0
  0
VERTEX
  5
7C5
  8
LAYER_1
 10
428.9476105834641
 20
550.5413405492284
 30
0.0
  0
VERTEX
  5
7C6
  8
LAYER_1
 10
428.9357810421329
 20
550.9776781102037
 30
0.0
  0
VERTEX
  5
7C7
  8
LAYER_1
 10
428.9318378616892
 20
551.4190502676383
 30
0.0
  0
VERTEX
  5
7C8
  8
LAYER_1
 10
428.9362035257519
 20
551.8617602898664
 30
0.0
  0
VERTEX
  5
7C9
  8
LAYER_1
 10
428.9493005179399
 20
552.302111445222
 30
0.0
  0
VERTEX
  5
7CA
  8
LAYER_1
 10
428.9711288382534
 20
552.740103733705
 30
0.0
  0
VERTEX
  5
7CB
  8
LAYER_1
 10
429.0016884866922
 20
553.1757371553153
 30
0.0
  0
VERTEX
  5
7CC
  8
LAYER_1
 10
429.0409794632565
 20
553.6090117100531
 30
0.0
  0
VERTEX
  5
7CD
  8
LAYER_1
 10
429.089001767946
 20
554.0399273979182
 30
0.0
  0
VERTEX
  5
7CE
  8
LAYER_1
 10
429.145755400761
 20
554.4684842189108
 30
0.0
  0
VERTEX
  5
7CF
  8
LAYER_1
 10
429.2112403617013
 20
554.8946821730309
 30
0.0
  0
VERTEX
  5
7D0
  8
LAYER_1
 10
429.2854566507671
 20
555.3185212602784
 30
0.0
  0
VERTEX
  5
7D1
  8
LAYER_1
 10
429.3684042679581
 20
555.7400014806532
 30
0.0
  0
VERTEX
  5
7D2
  8
LAYER_1
 10
429.4600832132746
 20
556.1591228341555
 30
0.0
  0
VERTEX
  5
7D3
  8
LAYER_1
 10
429.5604934867164
 20
556.5758853207852
 30
0.0
  0
VERTEX
  5
7D4
  8
LAYER_1
 10
429.6696350882837
 20
556.9902889405424
 30
0.0
  0
VERTEX
  5
7D5
  8
LAYER_1
 10
429.7875080179763
 20
557.4023336934268
 30
0.0
  0
VERTEX
  5
7D6
  8
LAYER_1
 10
429.9141122757943
 20
557.8120195794388
 30
0.0
  0
VERTEX
  5
7D7
  8
LAYER_1
 10
430.0494478617376
 20
558.2193465985782
 30
0.0
  0
VERTEX
  5
7D8
  8
LAYER_1
 10
430.1935147758064
 20
558.6243147508451
 30
0.0
  0
VERTEX
  5
7D9
  8
LAYER_1
 10
430.3463130180005
 20
559.0269240362392
 30
0.0
  0
VERTEX
  5
7DA
  8
LAYER_1
 10
430.50784258832
 20
559.4271744547608
 30
0.0
  0
VERTEX
  5
7DB
  8
LAYER_1
 10
430.6781034867648
 20
559.8250660064099
 30
0.0
  0
VERTEX
  5
7DC
  8
LAYER_1
 10
430.8570957133352
 20
560.2205986911865
 30
0.0
  0
VERTEX
  5
7DD
  8
LAYER_1
 10
431.0448192680308
 20
560.6137725090903
 30
0.0
  0
VERTEX
  5
7DE
  8
LAYER_1
 10
431.2412741508518
 20
561.0045874601217
 30
0.0
  0
VERTEX
  5
7DF
  8
LAYER_1
 10
431.4464603617981
 20
561.3930435442803
 30
0.0
  0
VERTEX
  5
7E0
  8
LAYER_1
 10
431.6603779008699
 20
561.7791407615664
 30
0.0
  0
VERTEX
  5
7E1
  8
LAYER_1
 10
431.8830267680671
 20
562.1628791119799
 30
0.0
  0
VERTEX
  5
7E2
  8
LAYER_1
 10
432.1144069633897
 20
562.544258595521
 30
0.0
  0
VERTEX
  5
7E3
  8
LAYER_1
 10
432.3545184868375
 20
562.9232792121893
 30
0.0
  0
VERTEX
  5
7E4
  8
LAYER_1
 10
432.6033613384109
 20
563.2999409619852
 30
0.0
  0
VERTEX
  5
7E5
  8
LAYER_1
 10
432.8609355181095
 20
563.6742438449082
 30
0.0
  0
VERTEX
  5
7E6
  8
LAYER_1
 10
433.1272410259336
 20
564.046187860959
 30
0.0
  0
VERTEX
  5
7E7
  8
LAYER_1
 10
433.4022778618829
 20
564.4157730101371
 30
0.0
  0
VERTEX
  5
7E8
  8
LAYER_1
 10
433.6841800566406
 20
564.7784223865704
 30
0.0
  0
VERTEX
  5
7E9
  8
LAYER_1
 10
433.9710816408893
 20
565.1295590843868
 30
0.0
  0
VERTEX
  5
7EA
  8
LAYER_1
 10
434.2629826146293
 20
565.4691831035861
 30
0.0
  0
VERTEX
  5
7EB
  8
LAYER_1
 10
434.5598829778605
 20
565.7972944441688
 30
0.0
  0
VERTEX
  5
7EC
  8
LAYER_1
 10
434.8617827305827
 20
566.1138931061344
 30
0.0
  0
VERTEX
  5
7ED
  8
LAYER_1
 10
435.1686818727961
 20
566.418979089483
 30
0.0
  0
VERTEX
  5
7EE
  8
LAYER_1
 10
435.4805804045006
 20
566.7125523942145
 30
0.0
  0
VERTEX
  5
7EF
  8
LAYER_1
 10
435.7974783256964
 20
566.9946130203294
 30
0.0
  0
VERTEX
  5
7F0
  8
LAYER_1
 10
436.1193756363832
 20
567.2651609678272
 30
0.0
  0
VERTEX
  5
7F1
  8
LAYER_1
 10
436.4462723365612
 20
567.5241962367081
 30
0.0
  0
VERTEX
  5
7F2
  8
LAYER_1
 10
436.7781684262303
 20
567.7717188269721
 30
0.0
  0
VERTEX
  5
7F3
  8
LAYER_1
 10
437.1150639053906
 20
568.0077287386193
 30
0.0
  0
VERTEX
  5
7F4
  8
LAYER_1
 10
437.4569587740419
 20
568.2322259716494
 30
0.0
  0
VERTEX
  5
7F5
  8
LAYER_1
 10
437.8038530321845
 20
568.4452105260627
 30
0.0
  0
VERTEX
  5
7F6
  8
LAYER_1
 10
438.1557466798182
 20
568.6466824018589
 30
0.0
  0
VERTEX
  5
7F7
  8
LAYER_1
 10
438.5126397169431
 20
568.8366415990383
 30
0.0
  0
VERTEX
  5
7F8
  8
LAYER_1
 10
438.8745321435591
 20
569.0150881176007
 30
0.0
  0
VERTEX
  5
7F9
  8
LAYER_1
 10
439.2414239596662
 20
569.1820219575462
 30
0.0
  0
VERTEX
  5
7FA
  8
LAYER_1
 10
439.6133151652645
 20
569.3374431188747
 30
0.0
  0
VERTEX
  5
7FB
  8
LAYER_1
 10
439.9902057603539
 20
569.4813516015864
 30
0.0
  0
VERTEX
  5
7FC
  8
LAYER_1
 10
440.3720957449344
 20
569.6137474056811
 30
0.0
  0
VERTEX
  5
7FD
  8
LAYER_1
 10
440.7589851190062
 20
569.7346305311589
 30
0.0
  0
VERTEX
  5
7FE
  8
LAYER_1
 10
441.150873882569
 20
569.8440009780197
 30
0.0
  0
VERTEX
  5
7FF
  8
LAYER_1
 10
441.547762035623
 20
569.9418587462636
 30
0.0
  0
VERTEX
  5
800
  8
LAYER_1
 10
441.9496495781681
 20
570.0282038358905
 30
0.0
  0
VERTEX
  5
801
  8
LAYER_1
 10
442.3565365102044
 20
570.1030362469007
 30
0.0
  0
VERTEX
  5
802
  8
LAYER_1
 10
442.7684228317318
 20
570.1663559792937
 30
0.0
  0
VERTEX
  5
803
  8
LAYER_1
 10
443.1853085427504
 20
570.2181630330699
 30
0.0
  0
VERTEX
  5
804
  8
LAYER_1
 10
443.6071936432601
 20
570.2584574082291
 30
0.0
  0
VERTEX
  5
805
  8
LAYER_1
 10
444.0340781332609
 20
570.2872391047715
 30
0.0
  0
VERTEX
  5
806
  8
LAYER_1
 10
444.4659620127529
 20
570.3045081226969
 30
0.0
  0
VERTEX
  5
807
  8
LAYER_1
 10
444.9028452817361
 20
570.3102644620054
 30
0.0
  0
VERTEX
  5
808
  8
LAYER_1
 10
445.4422160352877
 20
570.2994207157851
 30
0.0
  0
VERTEX
  5
809
  8
LAYER_1
 10
445.9697572475081
 20
570.2668894771246
 30
0.0
  0
VERTEX
  5
80A
  8
LAYER_1
 10
446.4854689183975
 20
570.2126707460234
 30
0.0
  0
VERTEX
  5
80B
  8
LAYER_1
 10
446.9893510479556
 20
570.1367645224818
 30
0.0
  0
VERTEX
  5
80C
  8
LAYER_1
 10
447.4814036361826
 20
570.0391708064998
 30
0.0
  0
VERTEX
  5
80D
  8
LAYER_1
 10
447.9616266830784
 20
569.9198895980772
 30
0.0
  0
VERTEX
  5
80E
  8
LAYER_1
 10
448.430020188643
 20
569.7789208972142
 30
0.0
  0
VERTEX
  5
80F
  8
LAYER_1
 10
448.8865841528765
 20
569.6162647039108
 30
0.0
  0
VERTEX
  5
810
  8
LAYER_1
 10
449.3313185757788
 20
569.431921018167
 30
0.0
  0
VERTEX
  5
811
  8
LAYER_1
 10
449.76422345735
 20
569.2258898399826
 30
0.0
  0
VERTEX
  5
812
  8
LAYER_1
 10
450.1852987975901
 20
568.9981711693578
 30
0.0
  0
VERTEX
  5
813
  8
LAYER_1
 10
450.594544596499
 20
568.7487650062925
 30
0.0
  0
VERTEX
  5
814
  8
LAYER_1
 10
450.9919608540767
 20
568.4776713507869
 30
0.0
  0
VERTEX
  5
815
  8
LAYER_1
 10
451.3775475703232
 20
568.1848902028407
 30
0.0
  0
VERTEX
  5
816
  8
LAYER_1
 10
451.7513047452386
 20
567.8704215624541
 30
0.0
  0
VERTEX
  5
817
  8
LAYER_1
 10
452.1132323788228
 20
567.534265429627
 30
0.0
  0
VERTEX
  5
818
  8
LAYER_1
 10
452.1132323788228
 20
573.6270425266653
 30
0.0
  0
VERTEX
  5
819
  8
LAYER_1
 10
452.1090075426332
 20
574.9739203039414
 30
0.0
  0
VERTEX
  5
81A
  8
LAYER_1
 10
452.0963330340641
 20
576.1844767001633
 30
0.0
  0
VERTEX
  5
81B
  8
LAYER_1
 10
452.0752088531156
 20
577.2587117153306
 30
0.0
  0
VERTEX
  5
81C
  8
LAYER_1
 10
452.0456349997876
 20
578.1966253494439
 30
0.0
  0
VERTEX
  5
81D
  8
LAYER_1
 10
452.0076114740803
 20
578.9982176025029
 30
0.0
  0
VERTEX
  5
81E
  8
LAYER_1
 10
451.9611382759936
 20
579.6634884745076
 30
0.0
  0
VERTEX
  5
81F
  8
LAYER_1
 10
451.9062154055276
 20
580.1924379654579
 30
0.0
  0
VERTEX
  5
820
  8
LAYER_1
 10
451.8755853431523
 20
580.4057921930378
 30
0.0
  0
VERTEX
  5
821
  8
LAYER_1
 10
451.8428428626821
 20
580.5850660753539
 30
0.0
  0
VERTEX
  5
822
  8
LAYER_1
 10
451.7704573359652
 20
580.8965773304077
 30
0.0
  0
VERTEX
  5
823
  8
LAYER_1
 10
451.6884955138851
 20
581.1821762568313
 30
0.0
  0
VERTEX
  5
824
  8
LAYER_1
 10
451.5969573964416
 20
581.4418628546249
 30
0.0
  0
VERTEX
  5
825
  8
LAYER_1
 10
451.4958429836348
 20
581.6756371237882
 30
0.0
  0
VERTEX
  5
826
  8
LAYER_1
 10
451.3851522754646
 20
581.8834990643214
 30
0.0
  0
VERTEX
  5
827
  8
LAYER_1
 10
451.2648852719312
 20
582.0654486762244
 30
0.0
  0
VERTEX
  5
828
  8
LAYER_1
 10
451.1350419730344
 20
582.2214859594974
 30
0.0
  0
VERTEX
  5
829
  8
LAYER_1
 10
450.9956223787744
 20
582.3516109141401
 30
0.0
  0
VERTEX
  5
82A
  8
LAYER_1
 10
450.846908144897
 20
582.4614566550722
 30
0.0
  0
VERTEX
  5
82B
  8
LAYER_1
 10
450.6891809271482
 20
582.5566562972135
 30
0.0
  0
VERTEX
  5
82C
  8
LAYER_1
 10
450.5224407255281
 20
582.6372098405637
 30
0.0
  0
VERTEX
  5
82D
  8
LAYER_1
 10
450.3466875400366
 20
582.7031172851231
 30
0.0
  0
VERTEX
  5
82E
  8
LAYER_1
 10
450.1619213706738
 20
582.7543786308916
 30
0.0
  0
VERTEX
  5
82F
  8
LAYER_1
 10
449.9681422174395
 20
582.7909938778689
 30
0.0
  0
VERTEX
  5
830
  8
LAYER_1
 10
449.765350080334
 20
582.8129630260553
 30
0.0
  0
VERTEX
  5
831
  8
LAYER_1
 10
449.5535449593571
 20
582.8202860754508
 30
0.0
  0
VERTEX
  5
832
  8
LAYER_1
 10
449.3096310833384
 20
582.8112730915793
 30
0.0
  0
VERTEX
  5
833
  8
LAYER_1
 10
449.0465646165932
 20
582.7842341399653
 30
0.0
  0
VERTEX
  5
834
  8
LAYER_1
 10
448.7643455591212
 20
582.7391692206086
 30
0.0
  0
VERTEX
  5
835
  8
LAYER_1
 10
448.4629739109226
 20
582.676078333509
 30
0.0
  0
VERTEX
  5
836
  8
LAYER_1
 10
448.1424496719975
 20
582.5949614786668
 30
0.0
  0
VERTEX
  5
837
  8
LAYER_1
 10
447.8027728423457
 20
582.495818656082
 30
0.0
  0
VERTEX
  5
838
  8
LAYER_1
 10
447.4439434219672
 20
582.3786498657543
 30
0.0
  0
VERTEX
  5
839
  8
LAYER_1
 10
447.0659614108621
 20
582.2434551076839
 30
0.0
  0
VERTEX
  5
83A
  8
LAYER_1
 10
446.5972862495515
 20
583.505272849674
 30
0.0
  0
VERTEX
  5
83B
  8
LAYER_1
 10
456.4394646370748
 20
587.5430896240425
 30
0.0
  0
VERTEX
  5
83C
  8
LAYER_1
 10
458.0618017339193
 20
587.5430896240425
 30
0.0
  0
VERTEX
  5
83D
  8
LAYER_1
 10
458.0618017339193
 20
549.3640899449686
 30
0.0
  0
VERTEX
  5
83E
  8
LAYER_1
 10
458.066026570109
 20
547.9836951339208
 30
0.0
  0
VERTEX
  5
83F
  8
LAYER_1
 10
458.0787010786781
 20
546.744691507355
 30
0.0
  0
VERTEX
  5
840
  8
LAYER_1
 10
458.0998252596266
 20
545.6470790652712
 30
0.0
  0
VERTEX
  5
841
  8
LAYER_1
 10
458.1293991129545
 20
544.6908578076693
 30
0.0
  0
VERTEX
  5
842
  8
LAYER_1
 10
458.1674226386618
 20
543.8760277345493
 30
0.0
  0
VERTEX
  5
843
  8
LAYER_1
 10
458.2138958367485
 20
543.2025888459112
 30
0.0
  0
VERTEX
  5
844
  8
LAYER_1
 10
458.2688187072146
 20
542.670541141755
 30
0.0
  0
VERTEX
  5
845
  8
LAYER_1
 10
458.2994487695899
 20
542.4575389838576
 30
0.0
  0
VERTEX
  5
846
  8
LAYER_1
 10
458.3321912500601
 20
542.2798846220809
 30
0.0
  0
VERTEX
  5
847
  8
LAYER_1
 10
458.4048584325228
 20
541.9720348917249
 30
0.0
  0
VERTEX
  5
848
  8
LAYER_1
 10
458.487665221841
 20
541.6884075555231
 30
0.0
  0
VERTEX
  5
849
  8
LAYER_1
 10
458.5806116180144
 20
541.4290026134755
 30
0.0
  0
VERTEX
  5
84A
  8
LAYER_1
 10
458.6836976210431
 20
541.1938200655823
 30
0.0
  0
VERTEX
  5
84B
  8
LAYER_1
 10
458.796923230927
 20
540.9828599118433
 30
0.0
  0
VERTEX
  5
84C
  8
LAYER_1
 10
458.9202884476662
 20
540.7961221522586
 30
0.0
  0
VERTEX
  5
84D
  8
LAYER_1
 10
459.0537932712607
 20
540.6336067868281
 30
0.0
  0
VERTEX
  5
84E
  8
LAYER_1
 10
459.1974377017105
 20
540.495313815552
 30
0.0
  0
VERTEX
  5
84F
  8
LAYER_1
 10
459.3492501487937
 20
540.3770184022405
 30
0.0
  0
VERTEX
  5
850
  8
LAYER_1
 10
459.5072590222884
 20
540.2744957107037
 30
0.0
  0
VERTEX
  5
851
  8
LAYER_1
 10
459.6714643221947
 20
540.187745740942
 30
0.0
  0
VERTEX
  5
852
  8
LAYER_1
 10
459.8418660485125
 20
540.116768492955
 30
0.0
  0
VERTEX
  5
853
  8
LAYER_1
 10
460.018464201242
 20
540.0615639667429
 30
0.0
  0
VERTEX
  5
854
  8
LAYER_1
 10
460.201258780383
 20
540.0221321623058
 30
0.0
  0
VERTEX
  5
855
  8
LAYER_1
 10
460.3902497859356
 20
539.9984730796434
 30
0.0
  0
VERTEX
  5
856
  8
LAYER_1
 10
460.5854372178997
 20
539.9905867187559
 30
0.0
  0
VERTEX
  5
857
  8
LAYER_1
 10
460.8389273892816
 20
540.0001630141193
 30
0.0
  0
VERTEX
  5
858
  8
LAYER_1
 10
461.1126967743741
 20
540.0288919002091
 30
0.0
  0
VERTEX
  5
859
  8
LAYER_1
 10
461.4067453731772
 20
540.0767733770258
 30
0.0
  0
VERTEX
  5
85A
  8
LAYER_1
 10
461.7210731856908
 20
540.143807444569
 30
0.0
  0
VERTEX
  5
85B
  8
LAYER_1
 10
462.0556802119149
 20
540.229994102839
 30
0.0
  0
VERTEX
  5
85C
  8
LAYER_1
 10
462.4105664518497
 20
540.3353333518354
 30
0.0
  0
VERTEX
  5
85D
  8
LAYER_1
 10
462.785731905495
 20
540.4598251915586
 30
0.0
  0
VERTEX
  5
85E
  8
LAYER_1
 10
463.1811765728509
 20
540.6034696220083
 30
0.0
  0
VERTEX
  5
85F
  8
LAYER_1
 10
463.5777478631906
 20
539.3416518800182
 30
0.0
  0
VERTEX
  5
860
  8
LAYER_1
 10
453.7716214111528
 20
535.2677831701642
 30
0.0
  0
VERTEX
  5
861
  8
LAYER_1
 10
452.1132323788228
 20
535.2677831701642
 30
0.0
  0
SEQEND
  5
A94
  8
LAYER_1
  0
POLYLINE
  5
7C
  8
LAYER_1
 66
     1
 10
0.0
 20
0.0
 30
0.0
 70
     1
  0
VERTEX
  5
862
  8
LAYER_1
 10
452.1132323788228
 20
542.5142222027363
 30
0.0
  0
VERTEX
  5
863
  8
LAYER_1
 10
452.1132323788228
 20
559.5307357518608
 30
0.0
  0
VERTEX
  5
864
  8
LAYER_1
 10
452.0456349997876
 20
560.1368589172096
 30
0.0
  0
VERTEX
  5
865
  8
LAYER_1
 10
451.9509986691384
 20
560.7294626067514
 30
0.0
  0
VERTEX
  5
866
  8
LAYER_1
 10
451.829323386875
 20
561.3085468204863
 30
0.0
  0
VERTEX
  5
867
  8
LAYER_1
 10
451.6806091529976
 20
561.874111558414
 30
0.0
  0
VERTEX
  5
868
  8
LAYER_1
 10
451.5048559675062
 20
562.4261568205347
 30
0.0
  0
VERTEX
  5
869
  8
LAYER_1
 10
451.4068397679051
 20
562.6971096481674
 30
0.0
  0
VERTEX
  5
86A
  8
LAYER_1
 10
451.3020638304006
 20
562.9646826068484
 30
0.0
  0
VERTEX
  5
86B
  8
LAYER_1
 10
451.1905281549925
 20
563.2288756965777
 30
0.0
  0
VERTEX
  5
86C
  8
LAYER_1
 10
451.072232741681
 20
563.489688917355
 30
0.0
  0
VERTEX
  5
86D
  8
LAYER_1
 10
450.9471775904659
 20
563.7471222691806
 30
0.0
  0
VERTEX
  5
86E
  8
LAYER_1
 10
450.8153627013472
 20
564.0011757520546
 30
0.0
  0
VERTEX
  5
86F
  8
LAYER_1
 10
450.6774217997536
 20
564.2496665339454
 30
0.0
  0
VERTEX
  5
870
  8
LAYER_1
 10
450.5339886111133
 20
564.4904117828218
 30
0.0
  0
VERTEX
  5
871
  8
LAYER_1
 10
450.3850631354263
 20
564.7234114986835
 30
0.0
  0
VERTEX
  5
872
  8
LAYER_1
 10
450.2306453726928
 20
564.948665681531
 30
0.0
  0
VERTEX
  5
873
  8
LAYER_1
 10
450.0707353229127
 20
565.166174331364
 30
0.0
  0
VERTEX
  5
874
  8
LAYER_1
 10
449.905332986086
 20
565.3759374481826
 30
0.0
  0
VERTEX
  5
875
  8
LAYER_1
 10
449.7344383622127
 20
565.5779550319867
 30
0.0
  0
VERTEX
  5
876
  8
LAYER_1
 10
449.5580514512927
 20
565.7722270827765
 30
0.0
  0
VERTEX
  5
877
  8
LAYER_1
 10
449.3761722533262
 20
565.9587536005517
 30
0.0
  0
VERTEX
  5
878
  8
LAYER_1
 10
449.188800768313
 20
566.1375345853126
 30
0.0
  0
VERTEX
  5
879
  8
LAYER_1
 10
448.9959369962532
 20
566.3085700370589
 30
0.0
  0
VERTEX
  5
87A
  8
LAYER_1
 10
448.7975809371468
 20
566.4718599557907
 30
0.0
  0
VERTEX
  5
87B
  8
LAYER_1
 10
448.5937325909939
 20
566.627404341508
 30
0.0
  0
VERTEX
  5
87C
  8
LAYER_1
 10
448.3843919577943
 20
566.7752031942111
 30
0.0
  0
VERTEX
  5
87D
  8
LAYER_1
 10
448.1695590375481
 20
566.9152565138995
 30
0.0
  0
VERTEX
  5
87E
  8
LAYER_1
 10
447.9492338302553
 20
567.0475643005736
 30
0.0
  0
VERTEX
  5
87F
  8
LAYER_1
 10
447.5044994073529
 20
567.2883799633864
 30
0.0
  0
VERTEX
  5
880
  8
LAYER_1
 10
447.0625815419104
 20
567.4970868711576
 30
0.0
  0
VERTEX
  5
881
  8
LAYER_1
 10
446.6234802339276
 20
567.6736850238871
 30
0.0
  0
VERTEX
  5
882
  8
LAYER_1
 10
446.1871954834047
 20
567.8181744215748
 30
0.0
  0
VERTEX
  5
883
  8
LAYER_1
 10
445.9701093171907
 20
567.8783783372779
 30
0.0
  0
VERTEX
  5
884
  8
LAYER_1
 10
445.7537272903415
 20
567.9305550642207
 30
0.0
  0
VERTEX
  5
885
  8
LAYER_1
 10
445.5380494028575
 20
567.9747046024031
 30
0.0
  0
VERTEX
  5
886
  8
LAYER_1
 10
445.3230756547382
 20
568.010826951825
 30
0.0
  0
VERTEX
  5
887
  8
LAYER_1
 10
445.108806045984
 20
568.0389221124865
 30
0.0
  0
VERTEX
  5
888
  8
LAYER_1
 10
444.8952405765947
 20
568.0589900843877
 30
0.0
  0
VERTEX
  5
889
  8
LAYER_1
 10
444.6823792465703
 20
568.0710308675284
 30
0.0
  0
VERTEX
  5
88A
  8
LAYER_1
 10
444.4702220559109
 20
568.0750444619085
 30
0.0
  0
VERTEX
  5
88B
  8
LAYER_1
 10
444.076326495158
 20
568.0639190599424
 30
0.0
  0
VERTEX
  5
88C
  8
LAYER_1
 10
443.6877823935787
 20
568.0305428540437
 30
0.0
  0
VERTEX
  5
88D
  8
LAYER_1
 10
443.3045897511729
 20
567.9749158442128
 30
0.0
  0
VERTEX
  5
88E
  8
LAYER_1
 10
442.9267485679408
 20
567.8970380304493
 30
0.0
  0
VERTEX
  5
88F
  8
LAYER_1
 10
442.5542588438823
 20
567.7969094127534
 30
0.0
  0
VERTEX
  5
890
  8
LAYER_1
 10
442.1871205789975
 20
567.674529991125
 30
0.0
  0
VERTEX
  5
891
  8
LAYER_1
 10
441.8253337732862
 20
567.5298997655643
 30
0.0
  0
VERTEX
  5
892
  8
LAYER_1
 10
441.4688984267486
 20
567.3630187360712
 30
0.0
  0
VERTEX
  5
893
  8
LAYER_1
 10
441.1178145393847
 20
567.1738869026458
 30
0.0
  0
VERTEX
  5
894
  8
LAYER_1
 10
440.7720821111942
 20
566.9625042652877
 30
0.0
  0
VERTEX
  5
895
  8
LAYER_1
 10
440.4317011421774
 20
566.7288708239973
 30
0.0
  0
VERTEX
  5
896
  8
LAYER_1
 10
440.0966716323343
 20
566.4729865787746
 30
0.0
  0
VERTEX
  5
897
  8
LAYER_1
 10
439.7669935816648
 20
566.1948515296194
 30
0.0
  0
VERTEX
  5
898
  8
LAYER_1
 10
439.4426669901689
 20
565.8944656765318
 30
0.0
  0
VERTEX
  5
899
  8
LAYER_1
 10
439.1236918578466
 20
565.5718290195118
 30
0.0
  0
VERTEX
  5
89A
  8
LAYER_1
 10
438.8100681846979
 20
565.2269415585592
 30
0.0
  0
VERTEX
  5
89B
  8
LAYER_1
 10
438.608226635735
 20
564.9892241089522
 30
0.0
  0
VERTEX
  5
89C
  8
LAYER_1
 10
438.4127927549932
 20
564.7447469214417
 30
0.0
  0
VERTEX
  5
89D
  8
LAYER_1
 10
438.2237665424724
 20
564.4935099960273
 30
0.0
  0
VERTEX
  5
89E
  8
LAYER_1
 10
438.0411479981726
 20
564.2355133327098
 30
0.0
  0
VERTEX
  5
89F
  8
LAYER_1
 10
437.8649371220939
 20
563.9707569314887
 30
0.0
  0
VERTEX
  5
8A0
  8
LAYER_1
 10
437.6951339142363
 20
563.699240792364
 30
0.0
  0
VERTEX
  5
8A1
  8
LAYER_1
 10
437.5317383745997
 20
563.4209649153358
 30
0.0
  0
VERTEX
  5
8A2
  8
LAYER_1
 10
437.3747505031841
 20
563.1359293004041
 30
0.0
  0
VERTEX
  5
8A3
  8
LAYER_1
 10
437.2241702999896
 20
562.8441339475687
 30
0.0
  0
VERTEX
  5
8A4
  8
LAYER_1
 10
437.0799977650161
 20
562.54557885683
 30
0.0
  0
VERTEX
  5
8A5
  8
LAYER_1
 10
436.9422328982637
 20
562.2402640281878
 30
0.0
  0
VERTEX
  5
8A6
  8
LAYER_1
 10
436.8108756997323
 20
561.928189461642
 30
0.0
  0
VERTEX
  5
8A7
  8
LAYER_1
 10
436.6859261694219
 20
561.6093551571926
 30
0.0
  0
VERTEX
  5
8A8
  8
LAYER_1
 10
436.5673843073326
 20
561.2837611148399
 30
0.0
  0
VERTEX
  5
8A9
  8
LAYER_1
 10
436.4552501134643
 20
560.9514073345836
 30
0.0
  0
VERTEX
  5
8AA
  8
LAYER_1
 10
436.3495235878171
 20
560.6122938164237
 30
0.0
  0
VERTEX
  5
8AB
  8
LAYER_1
 10
436.2502047303909
 20
560.2664205603603
 30
0.0
  0
VERTEX
  5
8AC
  8
LAYER_1
 10
436.1572935411858
 20
559.9137875663935
 30
0.0
  0
VERTEX
  5
8AD
  8
LAYER_1
 10
436.0707900202017
 20
559.554394834523
 30
0.0
  0
VERTEX
  5
8AE
  8
LAYER_1
 10
435.9906941674386
 20
559.1882423647492
 30
0.0
  0
VERTEX
  5
8AF
  8
LAYER_1
 10
435.9170059828966
 20
558.8153301570717
 30
0.0
  0
VERTEX
  5
8B0
  8
LAYER_1
 10
435.8497254665756
 20
558.4356582114908
 30
0.0
  0
VERTEX
  5
8B1
  8
LAYER_1
 10
435.7343874385969
 20
557.6560351066182
 30
0.0
  0
VERTEX
  5
8B2
  8
LAYER_1
 10
435.6446800835022
 20
556.8493730501316
 30
0.0
  0
VERTEX
  5
8B3
  8
LAYER_1
 10
435.5806034012918
 20
556.0156720420309
 30
0.0
  0
VERTEX
  5
8B4
  8
LAYER_1
 10
435.5421573919655
 20
555.1549320823162
 30
0.0
  0
VERTEX
  5
8B5
  8
LAYER_1
 10
435.5293420555234
 20
554.2671531709875
 30
0.0
  0
VERTEX
  5
8B6
  8
LAYER_1
 10
435.5417349083465
 20
553.3701500339779
 30
0.0
  0
VERTEX
  5
8B7
  8
LAYER_1
 10
435.5789134668159
 20
552.4997633649634
 30
0.0
  0
VERTEX
  5
8B8
  8
LAYER_1
 10
435.6408777309315
 20
551.655993163944
 30
0.0
  0
VERTEX
  5
8B9
  8
LAYER_1
 10
435.7276277006933
 20
550.8388394309197
 30
0.0
  0
VERTEX
  5
8BA
  8
LAYER_1
 10
435.8391633761014
 20
550.0483021658904
 30
0.0
  0
VERTEX
  5
8BB
  8
LAYER_1
 10
435.9754847571557
 20
549.2843813688562
 30
0.0
  0
VERTEX
  5
8BC
  8
LAYER_1
 10
436.1365918438563
 20
548.5470770398172
 30
0.0
  0
VERTEX
  5
8BD
  8
LAYER_1
 10
436.2264400268239
 20
548.188406050796
 30
0.0
  0
VERTEX
  5
8BE
  8
LAYER_1
 10
436.322484636203
 20
547.8363891787733
 30
0.0
  0
VERTEX
  5
8BF
  8
LAYER_1
 10
436.4247256719937
 20
547.4910264237494
 30
0.0
  0
VERTEX
  5
8C0
  8
LAYER_1
 10
436.5331631341959
 20
547.1523177857243
 30
0.0
  0
VERTEX
  5
8C1
  8
LAYER_1
 10
436.6477970228098
 20
546.8202632646983
 30
0.0
  0
VERTEX
  5
8C2
  8
LAYER_1
 10
436.7686273378352
 20
546.4948628606708
 30
0.0
  0
VERTEX
  5
8C3
  8
LAYER_1
 10
436.8956540792722
 20
546.1761165736422
 30
0.0
  0
VERTEX
  5
8C4
  8
LAYER_1
 10
437.0288772471207
 20
545.8640244036122
 30
0.0
  0
VERTEX
  5
8C5
  8
LAYER_1
 10
437.1682968413808
 20
545.5585863505812
 30
0.0
  0
VERTEX
  5
8C6
  8
LAYER_1
 10
437.3139128620525
 20
545.2598024145489
 30
0.0
  0
VERTEX
  5
8C7
  8
LAYER_1
 10
437.4657253091357
 20
544.9676725955153
 30
0.0
  0
VERTEX
  5
8C8
  8
LAYER_1
 10
437.6237341826304
 20
544.6821968934804
 30
0.0
  0
VERTEX
  5
8C9
  8
LAYER_1
 10
437.7879394825367
 20
544.4033753084444
 30
0.0
  0
VERTEX
  5
8CA
  8
LAYER_1
 10
437.9583412088546
 20
544.1312078404071
 30
0.0
  0
VERTEX
  5
8CB
  8
LAYER_1
 10
438.134939361584
 20
543.8656944893687
 30
0.0
  0
VERTEX
  5
8CC
  8
LAYER_1
 10
438.317733940725
 20
543.6068352553289
 30
0.0
  0
VERTEX
  5
8CD
  8
LAYER_1
 10
438.5067249462776
 20
543.354630138288
 30
0.0
  0
VERTEX
  5
8CE
  8
LAYER_1
 10
438.7019123782416
 20
543.1090791382459
 30
0.0
  0
VERTEX
  5
8CF
  8
LAYER_1
 10
439.1013002260411
 20
542.6397702515068
 30
0.0
  0
VERTEX
  5
8D0
  8
LAYER_1
 10
439.5063211887604
 20
542.2007393574605
 30
0.0
  0
VERTEX
  5
8D1
  8
LAYER_1
 10
439.916975266399
 20
541.7919864561071
 30
0.0
  0
VERTEX
  5
8D2
  8
LAYER_1
 10
440.3332624589574
 20
541.4135115474465
 30
0.0
  0
VERTEX
  5
8D3
  8
LAYER_1
 10
440.7551827664353
 20
541.0653146314788
 30
0.0
  0
VERTEX
  5
8D4
  8
LAYER_1
 10
441.1827361888329
 20
540.747395708204
 30
0.0
  0
VERTEX
  5
8D5
  8
LAYER_1
 10
441.6159227261501
 20
540.4597547776219
 30
0.0
  0
VERTEX
  5
8D6
  8
LAYER_1
 10
442.0547423783869
 20
540.2023918397327
 30
0.0
  0
VERTEX
  5
8D7
  8
LAYER_1
 10
442.4991951455432
 20
539.9753068945364
 30
0.0
  0
VERTEX
  5
8D8
  8
LAYER_1
 10
442.9492810276192
 20
539.7784999420329
 30
0.0
  0
VERTEX
  5
8D9
  8
LAYER_1
 10
443.1764363867521
 20
539.6914507130409
 30
0.0
  0
VERTEX
  5
8DA
  8
LAYER_1
 10
443.4050000246148
 20
539.6119709822223
 30
0.0
  0
VERTEX
  5
8DB
  8
LAYER_1
 10
443.6349719412074
 20
539.5400607495768
 30
0.0
  0
VERTEX
  5
8DC
  8
LAYER_1
 10
443.8663521365299
 20
539.4757200151045
 30
0.0
  0
VERTEX
  5
8DD
  8
LAYER_1
 10
444.0991406105824
 20
539.4189487788053
 30
0.0
  0
VERTEX
  5
8DE
  8
LAYER_1
 10
444.3333373633646
 20
539.3697470406795
 30
0.0
  0
VERTEX
  5
8DF
  8
LAYER_1
 10
444.5689423948769
 20
539.3281148007268
 30
0.0
  0
VERTEX
  5
8E0
  8
LAYER_1
 10
444.8059557051191
 20
539.2940520589474
 30
0.0
  0
VERTEX
  5
8E1
  8
LAYER_1
 10
445.0443772940911
 20
539.2675588153412
 30
0.0
  0
VERTEX
  5
8E2
  8
LAYER_1
 10
445.284207161793
 20
539.2486350699081
 30
0.0
  0
VERTEX
  5
8E3
  8
LAYER_1
 10
445.5254453082248
 20
539.2372808226484
 30
0.0
  0
VERTEX
  5
8E4
  8
LAYER_1
 10
445.7680917333865
 20
539.2334960735618
 30
0.0
  0
VERTEX
  5
8E5
  8
LAYER_1
 10
446.1773375322954
 20
539.2463114100038
 30
0.0
  0
VERTEX
  5
8E6
  8
LAYER_1
 10
446.5848933967284
 20
539.2847574193302
 30
0.0
  0
VERTEX
  5
8E7
  8
LAYER_1
 10
446.9907593266855
 20
539.3488341015405
 30
0.0
  0
VERTEX
  5
8E8
  8
LAYER_1
 10
447.3949353221667
 20
539.4385414566352
 30
0.0
  0
VERTEX
  5
8E9
  8
LAYER_1
 10
447.797421383172
 20
539.553879484614
 30
0.0
  0
VERTEX
  5
8EA
  8
LAYER_1
 10
448.1982175097015
 20
539.694848185477
 30
0.0
  0
VERTEX
  5
8EB
  8
LAYER_1
 10
448.5973237017551
 20
539.8614475592241
 30
0.0
  0
VERTEX
  5
8EC
  8
LAYER_1
 10
448.9947399593328
 20
540.0536776058555
 30
0.0
  0
VERTEX
  5
8ED
  8
LAYER_1
 10
449.3904662824347
 20
540.2715383253709
 30
0.0
  0
VERTEX
  5
8EE
  8
LAYER_1
 10
449.7845026710606
 20
540.5150297177706
 30
0.0
  0
VERTEX
  5
8EF
  8
LAYER_1
 10
450.1768491252107
 20
540.7841517830544
 30
0.0
  0
VERTEX
  5
8F0
  8
LAYER_1
 10
450.5675056448849
 20
541.0789045212225
 30
0.0
  0
VERTEX
  5
8F1
  8
LAYER_1
 10
450.9564722300831
 20
541.3992879322747
 30
0.0
  0
VERTEX
  5
8F2
  8
LAYER_1
 10
451.3437488808056
 20
541.7453020162111
 30
0.0
  0
VERTEX
  5
8F3
  8
LAYER_1
 10
451.7293355970522
 20
542.1169467730316
 30
0.0
  0
SEQEND
  5
A95
  8
LAYER_1
  0
POLYLINE
  5
7D
  8
LAYER_1
 66
     1
 10
0.0
 20
0.0
 30
0.0
 70
     1
  0
VERTEX
  5
8F4
  8
LAYER_1
 10
471.2568101215879
 20
556.8628925259387
 30
0.0
  0
VERTEX
  5
8F5
  8
LAYER_1
 10
471.2665272448243
 20
555.9559610238833
 30
0.0
  0
VERTEX
  5
8F6
  8
LAYER_1
 10
471.3046915984045
 20
555.0738152274741
 30
0.0
  0
VERTEX
  5
8F7
  8
LAYER_1
 10
471.3344414865737
 20
554.6420369688869
 30
0.0
  0
VERTEX
  5
8F8
  8
LAYER_1
 10
471.3713031823288
 20
554.2164551367113
 30
0.0
  0
VERTEX
  5
8F9
  8
LAYER_1
 10
471.4152766856699
 20
553.7970697309471
 30
0.0
  0
VERTEX
  5
8FA
  8
LAYER_1
 10
471.466361996597
 20
553.3838807515945
 30
0.0
  0
VERTEX
  5
8FB
  8
LAYER_1
 10
471.5245591151101
 20
552.9768881986535
 30
0.0
  0
VERTEX
  5
8FC
  8
LAYER_1
 10
471.5898680412092
 20
552.576092072124
 30
0.0
  0
VERTEX
  5
8FD
  8
LAYER_1
 10
471.6622887748943
 20
552.181492372006
 30
0.0
  0
VERTEX
  5
8FE
  8
LAYER_1
 10
471.7418213161654
 20
551.7930890982997
 30
0.0
  0
VERTEX
  5
8FF
  8
LAYER_1
 10
471.8284656650225
 20
551.410882251005
 30
0.0
  0
VERTEX
  5
900
  8
LAYER_1
 10
471.9222218214655
 20
551.0348718301218
 30
0.0
  0
VERTEX
  5
901
  8
LAYER_1
 10
472.0230897854946
 20
550.66505783565
 30
0.0
  0
VERTEX
  5
902
  8
LAYER_1
 10
472.1310695571097
 20
550.3014402675899
 30
0.0
  0
VERTEX
  5
903
  8
LAYER_1
 10
472.2461611363108
 20
549.9440191259413
 30
0.0
  0
VERTEX
  5
904
  8
LAYER_1
 10
472.3683645230979
 20
549.5927944107043
 30
0.0
  0
VERTEX
  5
905
  8
LAYER_1
 10
472.4976797174709
 20
549.2477661218788
 30
0.0
  0
VERTEX
  5
906
  8
LAYER_1
 10
472.6341067194299
 20
548.908934259465
 30
0.0
  0
VERTEX
  5
907
  8
LAYER_1
 10
472.7776455289749
 20
548.5762988234627
 30
0.0
  0
VERTEX
  5
908
  8
LAYER_1
 10
472.9282961461059
 20
548.249859813872
 30
0.0
  0
VERTEX
  5
909
  8
LAYER_1
 10
473.086058570823
 20
547.9296172306928
 30
0.0
  0
VERTEX
  5
90A
  8
LAYER_1
 10
473.250932803126
 20
547.6155710739251
 30
0.0
  0
VERTEX
  5
90B
  8
LAYER_1
 10
473.422918843015
 20
547.307721343569
 30
0.0
  0
VERTEX
  5
90C
  8
LAYER_1
 10
473.60201669049
 20
547.0060680396246
 30
0.0
  0
VERTEX
  5
90D
  8
LAYER_1
 10
473.788226345551
 20
546.7106111620915
 30
0.0
  0
VERTEX
  5
90E
  8
LAYER_1
 10
473.981547808198
 20
546.42135071097
 30
0.0
  0
VERTEX
  5
90F
  8
LAYER_1
 10
474.181981078431
 20
546.1382866862602
 30
0.0
  0
VERTEX
  5
910
  8
LAYER_1
 10
474.38952615625
 20
545.8614190879621
 30
0.0
  0
VERTEX
  5
911
  8
LAYER_1
 10
474.6041830416549
 20
545.5907479160753
 30
0.0
  0
VERTEX
  5
912
  8
LAYER_1
 10
474.8259517346459
 20
545.3262731706001
 30
0.0
  0
VERTEX
  5
913
  8
LAYER_1
 10
475.2815299037684
 20
544.8198561393281
 30
0.0
  0
VERTEX
  5
914
  8
LAYER_1
 10
475.7469660240002
 20
544.3461111745899
 30
0.0
  0
VERTEX
  5
915
  8
LAYER_1
 10
475.9833808157821
 20
544.1214907171708
 30
0.0
  0
VERTEX
  5
916
  8
LAYER_1
 10
476.2222600953414
 20
543.9050382763851
 30
0.0
  0
VERTEX
  5
917
  8
LAYER_1
 10
476.463603862678
 20
543.696753852233
 30
0.0
  0
VERTEX
  5
918
  8
LAYER_1
 10
476.7074121177919
 20
543.4966374447143
 30
0.0
  0
VERTEX
  5
919
  8
LAYER_1
 10
476.953684860683
 20
543.3046890538291
 30
0.0
  0
VERTEX
  5
91A
  8
LAYER_1
 10
477.2024220913517
 20
543.120908679577
 30
0.0
  0
VERTEX
  5
91B
  8
LAYER_1
 10
477.4536238097975
 20
542.9452963219586
 30
0.0
  0
VERTEX
  5
91C
  8
LAYER_1
 10
477.7072900160207
 20
542.7778519809735
 30
0.0
  0
VERTEX
  5
91D
  8
LAYER_1
 10
477.9634207100212
 20
542.6185756566218
 30
0.0
  0
VERTEX
  5
91E
  8
LAYER_1
 10
478.2220158917991
 20
542.4674673489035
 30
0.0
  0
VERTEX
  5
91F
  8
LAYER_1
 10
478.4830755613542
 20
542.3245270578187
 30
0.0
  0
VERTEX
  5
920
  8
LAYER_1
 10
478.7465997186867
 20
542.1897547833673
 30
0.0
  0
VERTEX
  5
921
  8
LAYER_1
 10
479.0125883637965
 20
542.0631505255494
 30
0.0
  0
VERTEX
  5
922
  8
LAYER_1
 10
479.2810414966837
 20
541.9447142843649
 30
0.0
  0
VERTEX
  5
923
  8
LAYER_1
 10
479.551959117348
 20
541.8344460598137
 30
0.0
  0
VERTEX
  5
924
  8
LAYER_1
 10
479.8253412257899
 20
541.732345851896
 30
0.0
  0
VERTEX
  5
925
  8
LAYER_1
 10
480.101187822009
 20
541.6384136606116
 30
0.0
  0
VERTEX
  5
926
  8
LAYER_1
 10
480.3794989060054
 20
541.5526494859607
 30
0.0
  0
VERTEX
  5
927
  8
LAYER_1
 10
480.6602744777792
 20
541.4750533279432
 30
0.0
  0
VERTEX
  5
928
  8
LAYER_1
 10
480.9435145373303
 20
541.4056251865592
 30
0.0
  0
VERTEX
  5
929
  8
LAYER_1
 10
481.2292190846587
 20
541.3443650618085
 30
0.0
  0
VERTEX
  5
92A
  8
LAYER_1
 10
481.5173881197644
 20
541.2912729536913
 30
0.0
  0
VERTEX
  5
92B
  8
LAYER_1
 10
481.8080216426475
 20
541.2463488622075
 30
0.0
  0
VERTEX
  5
92C
  8
LAYER_1
 10
482.1011196533079
 20
541.2095927873571
 30
0.0
  0
VERTEX
  5
92D
  8
LAYER_1
 10
482.3966821517456
 20
541.1810047291401
 30
0.0
  0
VERTEX
  5
92E
  8
LAYER_1
 10
482.6947091379607
 20
541.1605846875566
 30
0.0
  0
VERTEX
  5
92F
  8
LAYER_1
 10
482.995200611953
 20
541.1483326626064
 30
0.0
  0
VERTEX
  5
930
  8
LAYER_1
 10
483.2981565737227
 20
541.1442486542898
 30
0.0
  0
VERTEX
  5
931
  8
LAYER_1
 10
483.7004313929185
 20
541.1512196340028
 30
0.0
  0
VERTEX
  5
932
  8
LAYER_1
 10
484.0960873020838
 20
541.1721325731419
 30
0.0
  0
VERTEX
  5
933
  8
LAYER_1
 10
484.4851243012187
 20
541.2069874717068
 30
0.0
  0
VERTEX
  5
934
  8
LAYER_1
 10
484.8675423903229
 20
541.2557843296979
 30
0.0
  0
VERTEX
  5
935
  8
LAYER_1
 10
485.2433415693966
 20
541.3185231471149
 30
0.0
  0
VERTEX
  5
936
  8
LAYER_1
 10
485.6125218384399
 20
541.395203923958
 30
0.0
  0
VERTEX
  5
937
  8
LAYER_1
 10
485.9750831974526
 20
541.485826660227
 30
0.0
  0
VERTEX
  5
938
  8
LAYER_1
 10
486.3310256464347
 20
541.5903913559221
 30
0.0
  0
VERTEX
  5
939
  8
LAYER_1
 10
486.6803491853864
 20
541.7088980110431
 30
0.0
  0
VERTEX
  5
93A
  8
LAYER_1
 10
487.0230538143074
 20
541.8413466255902
 30
0.0
  0
VERTEX
  5
93B
  8
LAYER_1
 10
487.359139533198
 20
541.9877371995632
 30
0.0
  0
VERTEX
  5
93C
  8
LAYER_1
 10
487.6886063420581
 20
542.1480697329623
 30
0.0
  0
VERTEX
  5
93D
  8
LAYER_1
 10
488.0114542408876
 20
542.3223442257873
 30
0.0
  0
VERTEX
  5
93E
  8
LAYER_1
 10
488.3276832296866
 20
542.5105606780385
 30
0.0
  0
VERTEX
  5
93F
  8
LAYER_1
 10
488.6372933084551
 20
542.7127190897155
 30
0.0
  0
VERTEX
  5
940
  8
LAYER_1
 10
488.940284477193
 20
542.9288194608188
 30
0.0
  0
VERTEX
  5
941
  8
LAYER_1
 10
489.2369383916464
 20
543.1618191766808
 30
0.0
  0
VERTEX
  5
942
  8
LAYER_1
 10
489.5275367075611
 20
543.4146756226341
 30
0.0
  0
VERTEX
  5
943
  8
LAYER_1
 10
489.8120794249373
 20
543.6873887986793
 30
0.0
  0
VERTEX
  5
944
  8
LAYER_1
 10
490.090566543775
 20
543.979958704816
 30
0.0
  0
VERTEX
  5
945
  8
LAYER_1
 10
490.3629980640741
 20
544.2923853410442
 30
0.0
  0
VERTEX
  5
946
  8
LAYER_1
 10
490.6293739858347
 20
544.624668707364
 30
0.0
  0
VERTEX
  5
947
  8
LAYER_1
 10
490.8896943090566
 20
544.9768088037755
 30
0.0
  0
VERTEX
  5
948
  8
LAYER_1
 10
491.1439590337401
 20
545.3488056302785
 30
0.0
  0
VERTEX
  5
949
  8
LAYER_1
 10
491.3921681598849
 20
545.7406591868731
 30
0.0
  0
VERTEX
  5
94A
  8
LAYER_1
 10
491.6343216874912
 20
546.1523694735592
 30
0.0
  0
VERTEX
  5
94B
  8
LAYER_1
 10
491.8704196165588
 20
546.5839364903371
 30
0.0
  0
VERTEX
  5
94C
  8
LAYER_1
 10
492.100461947088
 20
547.0353602372065
 30
0.0
  0
VERTEX
  5
94D
  8
LAYER_1
 10
492.3244486790785
 20
547.5066407141675
 30
0.0
  0
VERTEX
  5
94E
  8
LAYER_1
 10
492.5423798125305
 20
547.99777792122
 30
0.0
  0
VERTEX
  5
94F
  8
LAYER_1
 10
492.7542553474439
 20
548.5087718583641
 30
0.0
  0
VERTEX
  5
950
  8
LAYER_1
 10
492.9600752838188
 20
549.0396225255997
 30
0.0
  0
VERTEX
  5
951
  8
LAYER_1
 10
494.0776852838673
 20
548.318583815891
 30
0.0
  0
VERTEX
  5
952
  8
LAYER_1
 10
493.9717827233788
 20
547.7046447035912
 30
0.0
  0
VERTEX
  5
953
  8
LAYER_1
 10
493.843347703212
 20
547.097606157068
 30
0.0
  0
VERTEX
  5
954
  8
LAYER_1
 10
493.6923802233667
 20
546.4974681763211
 30
0.0
  0
VERTEX
  5
955
  8
LAYER_1
 10
493.518880283843
 20
545.9042307613508
 30
0.0
  0
VERTEX
  5
956
  8
LAYER_1
 10
493.322847884641
 20
545.3178939121569
 30
0.0
  0
VERTEX
  5
957
  8
LAYER_1
 10
493.1042830257605
 20
544.7384576287398
 30
0.0
  0
VERTEX
  5
958
  8
LAYER_1
 10
492.8631857072018
 20
544.1659219110991
 30
0.0
  0
VERTEX
  5
959
  8
LAYER_1
 10
492.5995559289645
 20
543.6002867592349
 30
0.0
  0
VERTEX
  5
95A
  8
LAYER_1
 10
492.3133936910489
 20
543.0415521731471
 30
0.0
  0
VERTEX
  5
95B
  8
LAYER_1
 10
492.0046989934549
 20
542.489718152836
 30
0.0
  0
VERTEX
  5
95C
  8
LAYER_1
 10
491.6734718361824
 20
541.9447846983012
 30
0.0
  0
VERTEX
  5
95D
  8
LAYER_1
 10
491.3197122192316
 20
541.406751809543
 30
0.0
  0
VERTEX
  5
95E
  8
LAYER_1
 10
490.9434201426025
 20
540.8756194865613
 30
0.0
  0
VERTEX
  5
95F
  8
LAYER_1
 10
490.5445956062948
 20
540.3513877293561
 30
0.0
  0
VERTEX
  5
960
  8
LAYER_1
 10
490.1232386103088
 20
539.8340565379275
 30
0.0
  0
VERTEX
  5
961
  8
LAYER_1
 10
489.6793491546444
 20
539.3236259122754
 30
0.0
  0
VERTEX
  5
962
  8
LAYER_1
 10
489.4499757565119
 20
539.0740965248212
 30
0.0
  0
VERTEX
  5
963
  8
LAYER_1
 10
489.2170112476183
 20
538.8324887052228
 30
0.0
  0
VERTEX
  5
964
  8
LAYER_1
 10
488.9804556279634
 20
538.5988024534801
 30
0.0
  0
VERTEX
  5
965
  8
LAYER_1
 10
488.7403088975473
 20
538.3730377695931
 30
0.0
  0
VERTEX
  5
966
  8
LAYER_1
 10
488.4965710563699
 20
538.1551946535618
 30
0.0
  0
VERTEX
  5
967
  8
LAYER_1
 10
488.2492421044312
 20
537.9452731053861
 30
0.0
  0
VERTEX
  5
968
  8
LAYER_1
 10
487.9983220417313
 20
537.7432731250661
 30
0.0
  0
VERTEX
  5
969
  8
LAYER_1
 10
487.7438108682702
 20
537.5491947126018
 30
0.0
  0
VERTEX
  5
96A
  8
LAYER_1
 10
487.4857085840478
 20
537.3630378679932
 30
0.0
  0
VERTEX
  5
96B
  8
LAYER_1
 10
487.2240151890642
 20
537.1848025912402
 30
0.0
  0
VERTEX
  5
96C
  8
LAYER_1
 10
486.9587306833193
 20
537.0144888823429
 30
0.0
  0
VERTEX
  5
96D
  8
LAYER_1
 10
486.6898550668132
 20
536.8520967413014
 30
0.0
  0
VERTEX
  5
96E
  8
LAYER_1
 10
486.4173883395459
 20
536.6976261681154
 30
0.0
  0
VERTEX
  5
96F
  8
LAYER_1
 10
486.1413305015172
 20
536.5510771627853
 30
0.0
  0
VERTEX
  5
970
  8
LAYER_1
 10
485.8616815527274
 20
536.4124497253108
 30
0.0
  0
VERTEX
  5
971
  8
LAYER_1
 10
485.5784414931763
 20
536.281743855692
 30
0.0
  0
VERTEX
  5
972
  8
LAYER_1
 10
485.291610322864
 20
536.1589595539288
 30
0.0
  0
VERTEX
  5
973
  8
LAYER_1
 10
485.0011880417904
 20
536.0440968200214
 30
0.0
  0
VERTEX
  5
974
  8
LAYER_1
 10
484.7071746499556
 20
535.9371556539697
 30
0.0
  0
VERTEX
  5
975
  8
LAYER_1
 10
484.4095701473595
 20
535.8381360557736
 30
0.0
  0
VERTEX
  5
976
  8
LAYER_1
 10
484.1083745340022
 20
535.7470380254332
 30
0.0
  0
VERTEX
  5
977
  8
LAYER_1
 10
483.8035878098837
 20
535.6638615629486
 30
0.0
  0
VERTEX
  5
978
  8
LAYER_1
 10
483.4952099750039
 20
535.5886066683196
 30
0.0
  0
VERTEX
  5
979
  8
LAYER_1
 10
483.1832410293629
 20
535.5212733415462
 30
0.0
  0
VERTEX
  5
97A
  8
LAYER_1
 10
482.8676809729606
 20
535.4618615826286
 30
0.0
  0
VERTEX
  5
97B
  8
LAYER_1
 10
482.548529805797
 20
535.4103713915665
 30
0.0
  0
VERTEX
  5
97C
  8
LAYER_1
 10
482.2257875278723
 20
535.3668027683602
 30
0.0
  0
VERTEX
  5
97D
  8
LAYER_1
 10
481.8994541391862
 20
535.3311557130097
 30
0.0
  0
VERTEX
  5
97E
  8
LAYER_1
 10
481.569529639739
 20
535.3034302255148
 30
0.0
  0
VERTEX
  5
97F
  8
LAYER_1
 10
481.2360140295305
 20
535.2836263058755
 30
0.0
  0
VERTEX
  5
980
  8
LAYER_1
 10
480.8989073085608
 20
535.271743954092
 30
0.0
  0
VERTEX
  5
981
  8
LAYER_1
 10
480.5582094768297
 20
535.2677831701642
 30
0.0
  0
VERTEX
  5
982
  8
LAYER_1
 10
480.188096223128
 20
535.272307265584
 30
0.0
  0
VERTEX
  5
983
  8
LAYER_1
 10
479.8213276314096
 20
535.2858795518434
 30
0.0
  0
VERTEX
  5
984
  8
LAYER_1
 10
479.4579037016749
 20
535.3085000289425
 30
0.0
  0
VERTEX
  5
985
  8
LAYER_1
 10
479.0978244339237
 20
535.340168696881
 30
0.0
  0
VERTEX
  5
986
  8
LAYER_1
 10
478.741089828156
 20
535.3808855556593
 30
0.0
  0
VERTEX
  5
987
  8
LAYER_1
 10
478.3876998843717
 20
535.4306506052772
 30
0.0
  0
VERTEX
  5
988
  8
LAYER_1
 10
478.037654602571
 20
535.4894638457347
 30
0.0
  0
VERTEX
  5
989
  8
LAYER_1
 10
477.6909539827539
 20
535.5573252770316
 30
0.0
  0
VERTEX
  5
98A
  8
LAYER_1
 10
477.3475980249202
 20
535.6342348991684
 30
0.0
  0
VERTEX
  5
98B
  8
LAYER_1
 10
477.00758672907
 20
535.7201927121446
 30
0.0
  0
VERTEX
  5
98C
  8
LAYER_1
 10
476.6709200952034
 20
535.8151987159605
 30
0.0
  0
VERTEX
  5
98D
  8
LAYER_1
 10
476.3375981233202
 20
535.9192529106159
 30
0.0
  0
VERTEX
  5
98E
  8
LAYER_1
 10
476.0076208134206
 20
536.0323552961111
 30
0.0
  0
VERTEX
  5
98F
  8
LAYER_1
 10
475.6809881655045
 20
536.1545058724457
 30
0.0
  0
VERTEX
  5
990
  8
LAYER_1
 10
475.3577001795719
 20
536.28570463962
 30
0.0
  0
VERTEX
  5
991
  8
LAYER_1
 10
475.0377568556228
 20
536.4259515976338
 30
0.0
  0
VERTEX
  5
992
  8
LAYER_1
 10
474.7211581936572
 20
536.5752467464872
 30
0.0
  0
VERTEX
  5
993
  8
LAYER_1
 10
474.4079041936751
 20
536.7335900861804
 30
0.0
  0
VERTEX
  5
994
  8
LAYER_1
 10
474.0979948556766
 20
536.9009816167131
 30
0.0
  0
VERTEX
  5
995
  8
LAYER_1
 10
473.7914301796615
 20
537.0774213380854
 30
0.0
  0
VERTEX
  5
996
  8
LAYER_1
 10
473.48821016563
 20
537.2629092502974
 30
0.0
  0
VERTEX
  5
997
  8
LAYER_1
 10
473.1883348135819
 20
537.4574453533489
 30
0.0
  0
VERTEX
  5
998
  8
LAYER_1
 10
472.8918041235174
 20
537.6610296472401
 30
0.0
  0
VERTEX
  5
999
  8
LAYER_1
 10
472.5986180954364
 20
537.8736621319707
 30
0.0
  0
VERTEX
  5
99A
  8
LAYER_1
 10
472.3087767293389
 20
538.0953428075411
 30
0.0
  0
VERTEX
  5
99B
  8
LAYER_1
 10
472.022280025225
 20
538.326071673951
 30
0.0
  0
VERTEX
  5
99C
  8
LAYER_1
 10
471.7391279830945
 20
538.5658487312005
 30
0.0
  0
VERTEX
  5
99D
  8
LAYER_1
 10
471.4593206029475
 20
538.8146739792896
 30
0.0
  0
VERTEX
  5
99E
  8
LAYER_1
 10
471.1828578847841
 20
539.0725474182184
 30
0.0
  0
VERTEX
  5
99F
  8
LAYER_1
 10
470.9097398286042
 20
539.3394690479868
 30
0.0
  0
VERTEX
  5
9A0
  8
LAYER_1
 10
470.6399664344077
 20
539.6154388685948
 30
0.0
  0
VERTEX
  5
9A1
  8
LAYER_1
 10
470.3735377021948
 20
539.9004568800424
 30
0.0
  0
VERTEX
  5
9A2
  8
LAYER_1
 10
470.1129181197427
 20
540.1931148035997
 30
0.0
  0
VERTEX
  5
9A3
  8
LAYER_1
 10
469.8605721748288
 20
540.4920043605367
 30
0.0
  0
VERTEX
  5
9A4
  8
LAYER_1
 10
469.6164998674531
 20
540.7971255508536
 30
0.0
  0
VERTEX
  5
9A5
  8
LAYER_1
 10
469.3807011976155
 20
541.1084783745504
 30
0.0
  0
VERTEX
  5
9A6
  8
LAYER_1
 10
469.153176165316
 20
541.426062831627
 30
0.0
  0
VERTEX
  5
9A7
  8
LAYER_1
 10
468.9339247705548
 20
541.7498789220832
 30
0.0
  0
VERTEX
  5
9A8
  8
LAYER_1
 10
468.7229470133317
 20
542.0799266459194
 30
0.0
  0
VERTEX
  5
9A9
  8
LAYER_1
 10
468.5202428936468
 20
542.4162060031354
 30
0.0
  0
VERTEX
  5
9AA
  8
LAYER_1
 10
468.3258124115
 20
542.7587169937311
 30
0.0
  0
VERTEX
  5
9AB
  8
LAYER_1
 10
468.1396555668913
 20
543.1074596177066
 30
0.0
  0
VERTEX
  5
9AC
  8
LAYER_1
 10
467.9617723598209
 20
543.4624338750618
 30
0.0
  0
VERTEX
  5
9AD
  8
LAYER_1
 10
467.7921627902886
 20
543.8236397657971
 30
0.0
  0
VERTEX
  5
9AE
  8
LAYER_1
 10
467.6308268582944
 20
544.1910772899121
 30
0.0
  0
VERTEX
  5
9AF
  8
LAYER_1
 10
467.4777645638385
 20
544.5647464474068
 30
0.0
  0
VERTEX
  5
9B0
  8
LAYER_1
 10
467.3329759069206
 20
544.9446472382815
 30
0.0
  0
VERTEX
  5
9B1
  8
LAYER_1
 10
467.196460887541
 20
545.3307796625359
 30
0.0
  0
VERTEX
  5
9B2
  8
LAYER_1
 10
467.0682195056995
 20
545.7231437201699
 30
0.0
  0
VERTEX
  5
9B3
  8
LAYER_1
 10
466.9482517613961
 20
546.121739411184
 30
0.0
  0
VERTEX
  5
9B4
  8
LAYER_1
 10
466.836557654631
 20
546.5265667355777
 30
0.0
  0
VERTEX
  5
9B5
  8
LAYER_1
 10
466.733137185404
 20
546.9376256933514
 30
0.0
  0
VERTEX
  5
9B6
  8
LAYER_1
 10
466.6379903537152
 20
547.3549162845047
 30
0.0
  0
VERTEX
  5
9B7
  8
LAYER_1
 10
466.5511171595645
 20
547.778438509038
 30
0.0
  0
VERTEX
  5
9B8
  8
LAYER_1
 10
466.4725176029519
 20
548.2081923669509
 30
0.0
  0
VERTEX
  5
9B9
  8
LAYER_1
 10
466.4021916838776
 20
548.6441778582439
 30
0.0
  0
VERTEX
  5
9BA
  8
LAYER_1
 10
466.3401394023414
 20
549.0863949829165
 30
0.0
  0
VERTEX
  5
9BB
  8
LAYER_1
 10
466.2863607583433
 20
549.5348437409689
 30
0.0
  0
VERTEX
  5
9BC
  8
LAYER_1
 10
466.2408557518834
 20
549.9895241324011
 30
0.0
  0
VERTEX
  5
9BD
  8
LAYER_1
 10
466.2036243829617
 20
550.4504361572133
 30
0.0
  0
VERTEX
  5
9BE
  8
LAYER_1
 10
466.1746666515781
 20
550.9175798154051
 30
0.0
  0
VERTEX
  5
9BF
  8
LAYER_1
 10
466.1539825577327
 20
551.3909551069768
 30
0.0
  0
VERTEX
  5
9C0
  8
LAYER_1
 10
466.1415721014255
 20
551.8705620319282
 30
0.0
  0
VERTEX
  5
9C1
  8
LAYER_1
 10
466.1374352826564
 20
552.3564005902596
 30
0.0
  0
VERTEX
  5
9C2
  8
LAYER_1
 10
466.1416777223303
 20
552.8822694714883
 30
0.0
  0
VERTEX
  5
9C3
  8
LAYER_1
 10
466.1544050413517
 20
553.4008505102897
 30
0.0
  0
VERTEX
  5
9C4
  8
LAYER_1
 10
466.1756172397209
 20
553.912143706664
 30
0.0
  0
VERTEX
  5
9C5
  8
LAYER_1
 10
466.2053143174376
 20
554.4161490606109
 30
0.0
  0
VERTEX
  5
9C6
  8
LAYER_1
 10
466.243496274502
 20
554.9128665721307
 30
0.0
  0
VERTEX
  5
9C7
  8
LAYER_1
 10
466.2901631109141
 20
555.4022962412232
 30
0.0
  0
VERTEX
  5
9C8
  8
LAYER_1
 10
466.3453148266738
 20
555.8844380678886
 30
0.0
  0
VERTEX
  5
9C9
  8
LAYER_1
 10
466.4089514217811
 20
556.3592920521265
 30
0.0
  0
VERTEX
  5
9CA
  8
LAYER_1
 10
466.4810728962361
 20
556.8268581939373
 30
0.0
  0
VERTEX
  5
9CB
  8
LAYER_1
 10
466.5616792500387
 20
557.2871364933209
 30
0.0
  0
VERTEX
  5
9CC
  8
LAYER_1
 10
466.650770483189
 20
557.7401269502773
 30
0.0
  0
VERTEX
  5
9CD
  8
LAYER_1
 10
466.7483465956869
 20
558.1858295648065
 30
0.0
  0
VERTEX
  5
9CE
  8
LAYER_1
 10
466.8544075875325
 20
558.6242443369084
 30
0.0
  0
VERTEX
  5
9CF
  8
LAYER_1
 10
466.9689534587257
 20
559.055371266583
 30
0.0
  0
VERTEX
  5
9D0
  8
LAYER_1
 10
467.0919842092665
 20
559.4792103538306
 30
0.0
  0
VERTEX
  5
9D1
  8
LAYER_1
 10
467.223499839155
 20
559.8957615986508
 30
0.0
  0
VERTEX
  5
9D2
  8
LAYER_1
 10
467.3635003483912
 20
560.3050250010438
 30
0.0
  0
VERTEX
  5
9D3
  8
LAYER_1
 10
467.511985736975
 20
560.7070005610094
 30
0.0
  0
VERTEX
  5
9D4
  8
LAYER_1
 10
467.6689560049065
 20
561.1016882785481
 30
0.0
  0
VERTEX
  5
9D5
  8
LAYER_1
 10
467.8344111521855
 20
561.4890881536594
 30
0.0
  0
VERTEX
  5
9D6
  8
LAYER_1
 10
468.0083511788123
 20
561.8692001863435
 30
0.0
  0
VERTEX
  5
9D7
  8
LAYER_1
 10
468.1907760847866
 20
562.2420243766003
 30
0.0
  0
VERTEX
  5
9D8
  8
LAYER_1
 10
468.3816858701087
 20
562.60756072443
 30
0.0
  0
VERTEX
  5
9D9
  8
LAYER_1
 10
468.5810805347784
 20
562.9658092298323
 30
0.0
  0
VERTEX
  5
9DA
  8
LAYER_1
 10
468.7889600787958
 20
563.3167698928074
 30
0.0
  0
VERTEX
  5
9DB
  8
LAYER_1
 10
469.0053245021608
 20
563.6604427133552
 30
0.0
  0
VERTEX
  5
9DC
  8
LAYER_1
 10
469.2301738048734
 20
563.996827691476
 30
0.0
  0
VERTEX
  5
9DD
  8
LAYER_1
 10
469.4635079869336
 20
564.3259248271694
 30
0.0
  0
VERTEX
  5
9DE
  8
LAYER_1
 10
469.7053270483416
 20
564.6477341204355
 30
0.0
  0
VERTEX
  5
9DF
  8
LAYER_1
 10
469.9556309890971
 20
564.9622555712746
 30
0.0
  0
VERTEX
  5
9E0
  8
LAYER_1
 10
470.2144198092003
 20
565.2694891796864
 30
0.0
  0
VERTEX
  5
9E1
  8
LAYER_1
 10
470.4816935086511
 20
565.5694349456709
 30
0.0
  0
VERTEX
  5
9E2
  8
LAYER_1
 10
470.755374876323
 20
565.8611070741172
 30
0.0
  0
VERTEX
  5
9E3
  8
LAYER_1
 10
471.0333867010893
 20
566.1435197699145
 30
0.0
  0
VERTEX
  5
9E4
  8
LAYER_1
 10
471.3157289829501
 20
566.4166730330627
 30
0.0
  0
VERTEX
  5
9E5
  8
LAYER_1
 10
471.6024017219053
 20
566.6805668635618
 30
0.0
  0
VERTEX
  5
9E6
  8
LAYER_1
 10
471.893404917955
 20
566.9352012614117
 30
0.0
  0
VERTEX
  5
9E7
  8
LAYER_1
 10
472.1887385710991
 20
567.1805762266127
 30
0.0
  0
VERTEX
  5
9E8
  8
LAYER_1
 10
472.4884026813376
 20
567.4166917591646
 30
0.0
  0
VERTEX
  5
9E9
  8
LAYER_1
 10
472.7923972486706
 20
567.6435478590672
 30
0.0
  0
VERTEX
  5
9EA
  8
LAYER_1
 10
473.100722273098
 20
567.8611445263208
 30
0.0
  0
VERTEX
  5
9EB
  8
LAYER_1
 10
473.4133777546199
 20
568.0694817609253
 30
0.0
  0
VERTEX
  5
9EC
  8
LAYER_1
 10
473.7303636932362
 20
568.2685595628808
 30
0.0
  0
VERTEX
  5
9ED
  8
LAYER_1
 10
474.051680088947
 20
568.4583779321872
 30
0.0
  0
VERTEX
  5
9EE
  8
LAYER_1
 10
474.3773269417521
 20
568.6389368688446
 30
0.0
  0
VERTEX
  5
9EF
  8
LAYER_1
 10
474.7073042516517
 20
568.8102363728527
 30
0.0
  0
VERTEX
  5
9F0
  8
LAYER_1
 10
475.0416120186459
 20
568.9722764442117
 30
0.0
  0
VERTEX
  5
9F1
  8
LAYER_1
 10
475.3802502427344
 20
569.1250570829218
 30
0.0
  0
VERTEX
  5
9F2
  8
LAYER_1
 10
475.7232189239174
 20
569.2685782889827
 30
0.0
  0
VERTEX
  5
9F3
  8
LAYER_1
 10
476.0705180621948
 20
569.4028400623945
 30
0.0
  0
VERTEX
  5
9F4
  8
LAYER_1
 10
476.4221476575666
 20
569.5278424031573
 30
0.0
  0
VERTEX
  5
9F5
  8
LAYER_1
 10
476.7781077100329
 20
569.643585311271
 30
0.0
  0
VERTEX
  5
9F6
  8
LAYER_1
 10
477.1383982195936
 20
569.7500687867355
 30
0.0
  0
VERTEX
  5
9F7
  8
LAYER_1
 10
477.5030191862487
 20
569.847292829551
 30
0.0
  0
VERTEX
  5
9F8
  8
LAYER_1
 10
477.8719706099984
 20
569.9352574397172
 30
0.0
  0
VERTEX
  5
9F9
  8
LAYER_1
 10
478.2452524908424
 20
570.0139626172345
 30
0.0
  0
VERTEX
  5
9FA
  8
LAYER_1
 10
478.6228648287809
 20
570.0834083621027
 30
0.0
  0
VERTEX
  5
9FB
  8
LAYER_1
 10
479.0048076238138
 20
570.1435946743218
 30
0.0
  0
VERTEX
  5
9FC
  8
LAYER_1
 10
479.3910808759412
 20
570.1945215538917
 30
0.0
  0
VERTEX
  5
9FD
  8
LAYER_1
 10
479.781684585163
 20
570.2361890008127
 30
0.0
  0
VERTEX
  5
9FE
  8
LAYER_1
 10
480.1766187514793
 20
570.2685970150845
 30
0.0
  0
VERTEX
  5
9FF
  8
LAYER_1
 10
480.5758833748899
 20
570.2917455967072
 30
0.0
  0
VERTEX
  5
A00
  8
LAYER_1
 10
480.9794784553951
 20
570.3056347456809
 30
0.0
  0
VERTEX
  5
A01
  8
LAYER_1
 10
481.3874039929947
 20
570.3102644620054
 30
0.0
  0
VERTEX
  5
A02
  8
LAYER_1
 10
482.0736582180748
 20
570.295970432897
 30
0.0
  0
VERTEX
  5
A03
  8
LAYER_1
 10
482.7444213771261
 20
570.2530883455715
 30
0.0
  0
VERTEX
  5
A04
  8
LAYER_1
 10
483.0739938068908
 20
570.2209267800773
 30
0.0
  0
VERTEX
  5
A05
  8
LAYER_1
 10
483.3996934701485
 20
570.1816182000291
 30
0.0
  0
VERTEX
  5
A06
  8
LAYER_1
 10
483.7215203668987
 20
570.1351626054266
 30
0.0
  0
VERTEX
  5
A07
  8
LAYER_1
 10
484.0394744971419
 20
570.0815599962697
 30
0.0
  0
VERTEX
  5
A08
  8
LAYER_1
 10
484.3535558608778
 20
570.0208103725586
 30
0.0
  0
VERTEX
  5
A09
  8
LAYER_1
 10
484.6637644581065
 20
569.9529137342934
 30
0.0
  0
VERTEX
  5
A0A
  8
LAYER_1
 10
484.9701002888279
 20
569.8778700814737
 30
0.0
  0
VERTEX
  5
A0B
  8
LAYER_1
 10
485.2725633530421
 20
569.7956794141
 30
0.0
  0
VERTEX
  5
A0C
  8
LAYER_1
 10
485.571153650749
 20
569.706341732172
 30
0.0
  0
VERTEX
  5
A0D
  8
LAYER_1
 10
485.8658711819488
 20
569.6098570356897
 30
0.0
  0
VERTEX
  5
A0E
  8
LAYER_1
 10
486.1567159466413
 20
569.5062253246532
 30
0.0
  0
VERTEX
  5
A0F
  8
LAYER_1
 10
486.4436879448267
 20
569.3954465990626
 30
0.0
  0
VERTEX
  5
A10
  8
LAYER_1
 10
486.7267871765048
 20
569.2775208589176
 30
0.0
  0
VERTEX
  5
A11
  8
LAYER_1
 10
487.0060136416757
 20
569.1524481042184
 30
0.0
  0
VERTEX
  5
A12
  8
LAYER_1
 10
487.2813673403393
 20
569.0202283349647
 30
0.0
  0
VERTEX
  5
A13
  8
LAYER_1
 10
487.5528482724957
 20
568.8808615511572
 30
0.0
  0
VERTEX
  5
A14
  8
LAYER_1
 10
487.8204564381449
 20
568.7343477527953
 30
0.0
  0
VERTEX
  5
A15
  8
LAYER_1
 10
488.0841918372869
 20
568.5806869398791
 30
0.0
  0
VERTEX
  5
A16
  8
LAYER_1
 10
488.3440544699217
 20
568.4198791124088
 30
0.0
  0
VERTEX
  5
A17
  8
LAYER_1
 10
488.6000443360492
 20
568.251924270384
 30
0.0
  0
VERTEX
  5
A18
  8
LAYER_1
 10
488.8521614356695
 20
568.0768224138051
 30
0.0
  0
VERTEX
  5
A19
  8
LAYER_1
 10
489.1004057687827
 20
567.894573542672
 30
0.0
  0
VERTEX
  5
A1A
  8
LAYER_1
 10
489.3447773353885
 20
567.7051776569845
 30
0.0
  0
VERTEX
  5
A1B
  8
LAYER_1
 10
489.5852761354871
 20
567.5086347567429
 30
0.0
  0
VERTEX
  5
A1C
  8
LAYER_1
 10
489.8219021690785
 20
567.304944841947
 30
0.0
  0
VERTEX
  5
A1D
  8
LAYER_1
 10
490.0546554361627
 20
567.0941079125969
 30
0.0
  0
VERTEX
  5
A1E
  8
LAYER_1
 10
490.2835359367396
 20
566.8761239686926
 30
0.0
  0
VERTEX
  5
A1F
  8
LAYER_1
 10
490.5085436708093
 20
566.650993010234
 30
0.0
  0
VERTEX
  5
A20
  8
LAYER_1
 10
490.728129531769
 20
566.4198768671733
 30
0.0
  0
VERTEX
  5
A21
  8
LAYER_1
 10
490.9407444130155
 20
566.1839373694627
 30
0.0
  0
VERTEX
  5
A22
  8
LAYER_1
 10
491.1463883145492
 20
565.9431745171023
 30
0.0
  0
VERTEX
  5
A23
  8
LAYER_1
 10
491.3450612363698
 20
565.6975883100918
 30
0.0
  0
VERTEX
  5
A24
  8
LAYER_1
 10
491.5367631784774
 20
565.4471787484315
 30
0.0
  0
VERTEX
  5
A25
  8
LAYER_1
 10
491.721494140872
 20
565.1919458321213
 30
0.0
  0
VERTEX
  5
A26
  8
LAYER_1
 10
491.8992541235536
 20
564.9318895611613
 30
0.0
  0
VERTEX
  5
A27
  8
LAYER_1
 10
492.0700431265222
 20
564.6670099355512
 30
0.0
  0
VERTEX
  5
A28
  8
LAYER_1
 10
492.2338611497779
 20
564.3973069552912
 30
0.0
  0
VERTEX
  5
A29
  8
LAYER_1
 10
492.3907081933204
 20
564.1227806203815
 30
0.0
  0
VERTEX
  5
A2A
  8
LAYER_1
 10
492.54058425715
 20
563.8434309308218
 30
0.0
  0
VERTEX
  5
A2B
  8
LAYER_1
 10
492.6834893412665
 20
563.559257886612
 30
0.0
  0
VERTEX
  5
A2C
  8
LAYER_1
 10
492.8194234456701
 20
563.2702614877526
 30
0.0
  0
VERTEX
  5
A2D
  8
LAYER_1
 10
492.9483865703606
 20
562.976441734243
 30
0.0
  0
VERTEX
  5
A2E
  8
LAYER_1
 10
493.0703787153382
 20
562.6777986260837
 30
0.0
  0
VERTEX
  5
A2F
  8
LAYER_1
 10
493.1853998806028
 20
562.3743321632744
 30
0.0
  0
VERTEX
  5
A30
  8
LAYER_1
 10
493.2934500661544
 20
562.0660423458153
 30
0.0
  0
VERTEX
  5
A31
  8
LAYER_1
 10
493.394529271993
 20
561.7529291737062
 30
0.0
  0
VERTEX
  5
A32
  8
LAYER_1
 10
493.4886374981185
 20
561.4349926469472
 30
0.0
  0
VERTEX
  5
A33
  8
LAYER_1
 10
493.575774744531
 20
561.1122327655382
 30
0.0
  0
VERTEX
  5
A34
  8
LAYER_1
 10
493.6559410112306
 20
560.7846495294796
 30
0.0
  0
VERTEX
  5
A35
  8
LAYER_1
 10
493.7291362982171
 20
560.4522429387707
 30
0.0
  0
VERTEX
  5
A36
  8
LAYER_1
 10
493.7953606054907
 20
560.115012993412
 30
0.0
  0
VERTEX
  5
A37
  8
LAYER_1
 10
493.8546139330512
 20
559.7729596934035
 30
0.0
  0
VERTEX
  5
A38
  8
LAYER_1
 10
493.9068962808987
 20
559.4260830387451
 30
0.0
  0
VERTEX
  5
A39
  8
LAYER_1
 10
493.9522076490332
 20
559.0743830294368
 30
0.0
  0
VERTEX
  5
A3A
  8
LAYER_1
 10
494.0219174461632
 20
558.3565129468705
 30
0.0
  0
VERTEX
  5
A3B
  8
LAYER_1
 10
494.0637433244412
 20
557.6193494457044
 30
0.0
  0
VERTEX
  5
A3C
  8
LAYER_1
 10
494.0776852838673
 20
556.8628925259387
 30
0.0
  0
SEQEND
  5
A96
  8
LAYER_1
  0
POLYLINE
  5
7E
  8
LAYER_1
 66
     1
 10
0.0
 20
0.0
 30
0.0
 70
     1
  0
VERTEX
  5
A3D
  8
LAYER_1
 10
471.2568101215879
 20
558.9539047840939
 30
0.0
  0
VERTEX
  5
A3E
  8
LAYER_1
 10
486.5428307674117
 20
558.9539047840939
 30
0.0
  0
VERTEX
  5
A3F
  8
LAYER_1
 10
486.4915694216432
 20
559.7177551671914
 30
0.0
  0
VERTEX
  5
A40
  8
LAYER_1
 10
486.4279152230519
 20
560.4230211551253
 30
0.0
  0
VERTEX
  5
A41
  8
LAYER_1
 10
486.3518681716373
 20
561.0697027478952
 30
0.0
  0
VERTEX
  5
A42
  8
LAYER_1
 10
486.2634282673996
 20
561.6577999455014
 30
0.0
  0
VERTEX
  5
A43
  8
LAYER_1
 10
486.1625955103387
 20
562.1873127479437
 30
0.0
  0
VERTEX
  5
A44
  8
LAYER_1
 10
486.0493699004548
 20
562.6582411552222
 30
0.0
  0
VERTEX
  5
A45
  8
LAYER_1
 10
485.9237514377478
 20
563.0705851673368
 30
0.0
  0
VERTEX
  5
A46
  8
LAYER_1
 10
485.8562948865856
 20
563.2547880252077
 30
0.0
  0
VERTEX
  5
A47
  8
LAYER_1
 10
485.7857401222176
 20
563.4243447842877
 30
0.0
  0
VERTEX
  5
A48
  8
LAYER_1
 10
485.6696275409373
 20
563.6733284637339
 30
0.0
  0
VERTEX
  5
A49
  8
LAYER_1
 10
485.5466143938806
 20
563.9155524052767
 30
0.0
  0
VERTEX
  5
A4A
  8
LAYER_1
 10
485.4167006810473
 20
564.1510166089158
 30
0.0
  0
VERTEX
  5
A4B
  8
LAYER_1
 10
485.2798864024376
 20
564.3797210746516
 30
0.0
  0
VERTEX
  5
A4C
  8
LAYER_1
 10
485.1361715580513
 20
564.6016658024837
 30
0.0
  0
VERTEX
  5
A4D
  8
LAYER_1
 10
484.9855561478885
 20
564.8168507924124
 30
0.0
  0
VERTEX
  5
A4E
  8
LAYER_1
 10
484.8280401719492
 20
565.0252760444375
 30
0.0
  0
VERTEX
  5
A4F
  8
LAYER_1
 10
484.6636236302335
 20
565.2269415585592
 30
0.0
  0
VERTEX
  5
A50
  8
LAYER_1
 10
484.4923065227412
 20
565.4218473347773
 30
0.0
  0
VERTEX
  5
A51
  8
LAYER_1
 10
484.3140888494723
 20
565.609993373092
 30
0.0
  0
VERTEX
  5
A52
  8
LAYER_1
 10
484.128970610427
 20
565.7913796735031
 30
0.0
  0
VERTEX
  5
A53
  8
LAYER_1
 10
483.9369518056052
 20
565.9660062360107
 30
0.0
  0
VERTEX
  5
A54
  8
LAYER_1
 10
483.7380324350069
 20
566.1338730606146
 30
0.0
  0
VERTEX
  5
A55
  8
LAYER_1
 10
483.532212498632
 20
566.2949801473153
 30
0.0
  0
VERTEX
  5
A56
  8
LAYER_1
 10
483.3194919964807
 20
566.4493274961121
 30
0.0
  0
VERTEX
  5
A57
  8
LAYER_1
 10
483.0998709285528
 20
566.5969151070058
 30
0.0
  0
VERTEX
  5
A58
  8
LAYER_1
 10
482.8761658523082
 20
566.7366163570118
 30
0.0
  0
VERTEX
  5
A59
  8
LAYER_1
 10
482.6511933252067
 20
566.8673046231465
 30
0.0
  0
VERTEX
  5
A5A
  8
LAYER_1
 10
482.4249533472483
 20
566.9889799054099
 30
0.0
  0
VERTEX
  5
A5B
  8
LAYER_1
 10
482.197445918433
 20
567.1016422038019
 30
0.0
  0
VERTEX
  5
A5C
  8
LAYER_1
 10
481.9686710387608
 20
567.2052915183226
 30
0.0
  0
VERTEX
  5
A5D
  8
LAYER_1
 10
481.7386287082317
 20
567.2999278489717
 30
0.0
  0
VERTEX
  5
A5E
  8
LAYER_1
 10
481.5073189268457
 20
567.3855511957497
 30
0.0
  0
VERTEX
  5
A5F
  8
LAYER_1
 10
481.2747416946028
 20
567.4621615586561
 30
0.0
  0
VERTEX
  5
A60
  8
LAYER_1
 10
481.0408970115029
 20
567.5297589376914
 30
0.0
  0
VERTEX
  5
A61
  8
LAYER_1
 10
480.8057848775462
 20
567.5883433328552
 30
0.0
  0
VERTEX
  5
A62
  8
LAYER_1
 10
480.5694052927325
 20
567.6379147441478
 30
0.0
  0
VERTEX
  5
A63
  8
LAYER_1
 10
480.3317582570619
 20
567.6784731715688
 30
0.0
  0
VERTEX
  5
A64
  8
LAYER_1
 10
480.0928437705344
 20
567.7100186151185
 30
0.0
  0
VERTEX
  5
A65
  8
LAYER_1
 10
479.85266183315
 20
567.7325510747969
 30
0.0
  0
VERTEX
  5
A66
  8
LAYER_1
 10
479.6112124449087
 20
567.7460705506039
 30
0.0
  0
VERTEX
  5
A67
  8
LAYER_1
 10
479.3684956058104
 20
567.7505770425396
 30
0.0
  0
VERTEX
  5
A68
  8
LAYER_1
 10
478.9969212629264
 20
567.7414936447317
 30
0.0
  0
VERTEX
  5
A69
  8
LAYER_1
 10
478.6302758955969
 20
567.7142434513082
 30
0.0
  0
VERTEX
  5
A6A
  8
LAYER_1
 10
478.2685595038222
 20
567.668826462269
 30
0.0
  0
VERTEX
  5
A6B
  8
LAYER_1
 10
477.9117720876021
 20
567.6052426776139
 30
0.0
  0
VERTEX
  5
A6C
  8
LAYER_1
 10
477.5599136469366
 20
567.5234920973433
 30
0.0
  0
VERTEX
  5
A6D
  8
LAYER_1
 10
477.2129841818258
 20
567.4235747214568
 30
0.0
  0
VERTEX
  5
A6E
  8
LAYER_1
 10
476.8709836922697
 20
567.3054905499548
 30
0.0
  0
VERTEX
  5
A6F
  8
LAYER_1
 10
476.5339121782682
 20
567.169239582837
 30
0.0
  0
VERTEX
  5
A70
  8
LAYER_1
 10
476.2017696398214
 20
567.0148218201034
 30
0.0
  0
VERTEX
  5
A71
  8
LAYER_1
 10
475.8745560769291
 20
566.8422372617542
 30
0.0
  0
VERTEX
  5
A72
  8
LAYER_1
 10
475.5522714895916
 20
566.6514859077893
 30
0.0
  0
VERTEX
  5
A73
  8
LAYER_1
 10
475.2349158778087
 20
566.4425677582087
 30
0.0
  0
VERTEX
  5
A74
  8
LAYER_1
 10
474.9224892415804
 20
566.2154828130124
 30
0.0
  0
VERTEX
  5
A75
  8
LAYER_1
 10
474.6149915809068
 20
565.9702310722004
 30
0.0
  0
VERTEX
  5
A76
  8
LAYER_1
 10
474.3124228957878
 20
565.7068125357727
 30
0.0
  0
VERTEX
  5
A77
  8
LAYER_1
 10
474.0147831862236
 20
565.4252272037292
 30
0.0
  0
VERTEX
  5
A78
  8
LAYER_1
 10
473.7272830835145
 20
565.1274466662918
 30
0.0
  0
VERTEX
  5
A79
  8
LAYER_1
 10
473.4551332189614
 20
564.8154425136826
 30
0.0
  0
VERTEX
  5
A7A
  8
LAYER_1
 10
473.1983335925642
 20
564.4892147459013
 30
0.0
  0
VERTEX
  5
A7B
  8
LAYER_1
 10
472.9568842043229
 20
564.1487633629481
 30
0.0
  0
VERTEX
  5
A7C
  8
LAYER_1
 10
472.7307850542375
 20
563.7940883648229
 30
0.0
  0
VERTEX
  5
A7D
  8
LAYER_1
 10
472.520036142308
 20
563.4251897515255
 30
0.0
  0
VERTEX
  5
A7E
  8
LAYER_1
 10
472.3246374685344
 20
563.0420675230564
 30
0.0
  0
VERTEX
  5
A7F
  8
LAYER_1
 10
472.1445890329167
 20
562.6447216794152
 30
0.0
  0
VERTEX
  5
A80
  8
LAYER_1
 10
471.979890835455
 20
562.2331522206019
 30
0.0
  0
VERTEX
  5
A81
  8
LAYER_1
 10
471.830542876149
 20
561.8073591466167
 30
0.0
  0
VERTEX
  5
A82
  8
LAYER_1
 10
471.6965451549991
 20
561.3673424574595
 30
0.0
  0
VERTEX
  5
A83
  8
LAYER_1
 10
471.5778976720051
 20
560.9131021531304
 30
0.0
  0
VERTEX
  5
A84
  8
LAYER_1
 10
471.4746004271669
 20
560.4446382336292
 30
0.0
  0
VERTEX
  5
A85
  8
LAYER_1
 10
471.3866534204847
 20
559.9619506989561
 30
0.0
  0
VERTEX
  5
A86
  8
LAYER_1
 10
471.3140566519584
 20
559.465039549111
 30
0.0
  0
SEQEND
  5
A97
  8
LAYER_1
  0
ENDSEC
  0
EOF
